  0
SECTION
  2
HEADER
  9
$ACADVER
  1
AC1015
  9
$ACADMAINTVER
 70
     6
  9
$DWGCODEPAGE
  3
ANSI_932
  9
$INSBASE
 10
0.0
 20
0.0
 30
0.0
  9
$EXTMIN
 10
181.3431457505076
 20
423.7734631863639
 30
0.0
  9
$EXTMAX
 10
850.0
 20
1216.584906
 30
0.0
  9
$LIMMIN
 10
0.0
 20
0.0
  9
$LIMMAX
 10
1050.0
 20
1485.0
  9
$ORTHOMODE
 70
     1
  9
$REGENMODE
 70
     1
  9
$FILLMODE
 70
     1
  9
$QTEXTMODE
 70
     0
  9
$MIRRTEXT
 70
     1
  9
$LTSCALE
 40
1.25
  9
$ATTMODE
 70
     1
  9
$TEXTSIZE
 40
0.2
  9
$TRACEWID
 40
0.05
  9
$TEXTSTYLE
  7
STANDARD
  9
$CLAYER
  8
0
  9
$CELTYPE
  6
ByLayer
  9
$CECOLOR
 62
   256
  9
$CELTSCALE
 40
1.0
  9
$DISPSILH
 70
     0
  9
$DIMSCALE
 40
1.0
  9
$DIMASZ
 40
1.0
  9
$DIMEXO
 40
0.0
  9
$DIMDLI
 40
0.5
  9
$DIMRND
 40
0.0
  9
$DIMDLE
 40
0.0
  9
$DIMEXE
 40
0.0
  9
$DIMTP
 40
0.0
  9
$DIMTM
 40
0.0
  9
$DIMTXT
 40
0.18
  9
$DIMCEN
 40
0.0
  9
$DIMTSZ
 40
0.0
  9
$DIMTOL
 70
     0
  9
$DIMLIM
 70
     0
  9
$DIMTIH
 70
     1
  9
$DIMTOH
 70
     1
  9
$DIMSE1
 70
     0
  9
$DIMSE2
 70
     0
  9
$DIMTAD
 70
     0
  9
$DIMZIN
 70
     0
  9
$DIMBLK
  1

  9
$DIMASO
 70
     0
  9
$DIMSHO
 70
     0
  9
$DIMPOST
  1

  9
$DIMAPOST
  1

  9
$DIMALT
 70
     0
  9
$DIMALTD
 70
     0
  9
$DIMALTF
 40
25.4
  9
$DIMLFAC
 40
1.0
  9
$DIMTOFL
 70
     0
  9
$DIMTVP
 40
0.0
  9
$DIMTIX
 70
     0
  9
$DIMSOXD
 70
     0
  9
$DIMSAH
 70
     0
  9
$DIMBLK1
  1

  9
$DIMBLK2
  1

  9
$DIMSTYLE
  2
Standard
  9
$DIMCLRD
 70
     0
  9
$DIMCLRE
 70
     0
  9
$DIMCLRT
 70
     0
  9
$DIMTFAC
 40
1.0
  9
$DIMGAP
 40
0.09
  9
$DIMJUST
 70
     0
  9
$DIMSD1
 70
     0
  9
$DIMSD2
 70
     0
  9
$DIMTOLJ
 70
     1
  9
$DIMTZIN
 70
     0
  9
$DIMALTZ
 70
     0
  9
$DIMALTTZ
 70
     0
  9
$DIMUPT
 70
     0
  9
$DIMDEC
 70
     4
  9
$DIMTDEC
 70
     4
  9
$DIMALTU
 70
     2
  9
$DIMALTTD
 70
     2
  9
$DIMTXSTY
  7
STANDARD
  9
$DIMAUNIT
 70
     0
  9
$DIMADEC
 70
     0
  9
$DIMALTRND
 40
0.0
  9
$DIMAZIN
 70
     0
  9
$DIMDSEP
 70
    46
  9
$DIMATFIT
 70
     3
  9
$DIMFRAC
 70
     0
  9
$DIMLDRBLK
  1

  9
$DIMLUNIT
 70
     2
  9
$DIMLWD
 70
    -2
  9
$DIMLWE
 70
    -2
  9
$DIMTMOVE
 70
     0
  9
$LUNITS
 70
     2
  9
$LUPREC
 70
     2
  9
$SKETCHINC
 40
0.0
  9
$FILLETRAD
 40
0.0
  9
$AUNITS
 70
     1
  9
$AUPREC
 70
     2
  9
$MENU
  1
ACAD
  9
$ELEVATION
 40
0.0
  9
$PELEVATION
 40
0.0
  9
$THICKNESS
 40
0.0
  9
$LIMCHECK
 70
     1
  9
$CHAMFERA
 40
0.0
  9
$CHAMFERB
 40
0.0
  9
$CHAMFERC
 40
0.0
  9
$CHAMFERD
 40
0.0
  9
$SKPOLY
 70
     0
  9
$TDCREATE
 40
2311945.642537963
  9
$TDUCREATE
 40
2311945.267537963
  9
$TDUPDATE
 40
2454792.714324178
  9
$TDUUPDATE
 40
2454792.339324178
  9
$TDINDWG
 40
0.0296180671
  9
$TDUSRTIMER
 40
0.0296131829
  9
$USRTIMER
 70
     1
  9
$ANGBASE
 50
0.0
  9
$ANGDIR
 70
     0
  9
$PDMODE
 70
     0
  9
$PDSIZE
 40
0.0
  9
$PLINEWID
 40
0.0
  9
$SPLFRAME
 70
     0
  9
$SPLINETYPE
 70
     6
  9
$SPLINESEGS
 70
     8
  9
$HANDSEED
  5
599
  9
$SURFTAB1
 70
     6
  9
$SURFTAB2
 70
     6
  9
$SURFTYPE
 70
     6
  9
$SURFU
 70
     6
  9
$SURFV
 70
     6
  9
$UCSBASE
  2

  9
$UCSNAME
  2

  9
$UCSORG
 10
0.0
 20
0.0
 30
0.0
  9
$UCSXDIR
 10
1.0
 20
0.0
 30
0.0
  9
$UCSYDIR
 10
0.0
 20
1.0
 30
0.0
  9
$UCSORTHOREF
  2

  9
$UCSORTHOVIEW
 70
     0
  9
$UCSORGTOP
 10
0.0
 20
0.0
 30
0.0
  9
$UCSORGBOTTOM
 10
0.0
 20
0.0
 30
0.0
  9
$UCSORGLEFT
 10
0.0
 20
0.0
 30
0.0
  9
$UCSORGRIGHT
 10
0.0
 20
0.0
 30
0.0
  9
$UCSORGFRONT
 10
0.0
 20
0.0
 30
0.0
  9
$UCSORGBACK
 10
0.0
 20
0.0
 30
0.0
  9
$PUCSBASE
  2

  9
$PUCSNAME
  2

  9
$PUCSORG
 10
0.0
 20
0.0
 30
0.0
  9
$PUCSXDIR
 10
1.0
 20
0.0
 30
0.0
  9
$PUCSYDIR
 10
0.0
 20
1.0
 30
0.0
  9
$PUCSORTHOREF
  2

  9
$PUCSORTHOVIEW
 70
     0
  9
$PUCSORGTOP
 10
0.0
 20
0.0
 30
0.0
  9
$PUCSORGBOTTOM
 10
0.0
 20
0.0
 30
0.0
  9
$PUCSORGLEFT
 10
0.0
 20
0.0
 30
0.0
  9
$PUCSORGRIGHT
 10
0.0
 20
0.0
 30
0.0
  9
$PUCSORGFRONT
 10
0.0
 20
0.0
 30
0.0
  9
$PUCSORGBACK
 10
0.0
 20
0.0
 30
0.0
  9
$USERI1
 70
     0
  9
$USERI2
 70
     0
  9
$USERI3
 70
     0
  9
$USERI4
 70
     0
  9
$USERI5
 70
     0
  9
$USERR1
 40
0.0
  9
$USERR2
 40
0.0
  9
$USERR3
 40
0.0
  9
$USERR4
 40
0.0
  9
$USERR5
 40
0.0
  9
$WORLDVIEW
 70
     1
  9
$SHADEDGE
 70
     3
  9
$SHADEDIF
 70
    70
  9
$TILEMODE
 70
     1
  9
$MAXACTVP
 70
    64
  9
$PINSBASE
 10
0.0
 20
0.0
 30
0.0
  9
$PLIMCHECK
 70
     0
  9
$PEXTMIN
 10
0.0
 20
0.0
 30
0.0
  9
$PEXTMAX
 10
210.0
 20
297.0
 30
0.0
  9
$PLIMMIN
 10
0.0
 20
0.0
  9
$PLIMMAX
 10
12.0
 20
9.0
  9
$UNITMODE
 70
     0
  9
$VISRETAIN
 70
     1
  9
$PLINEGEN
 70
     0
  9
$PSLTSCALE
 70
     1
  9
$TREEDEPTH
 70
  3020
  9
$CMLSTYLE
  2
Standard
  9
$CMLJUST
 70
     0
  9
$CMLSCALE
 40
1.0
  9
$PROXYGRAPHICS
 70
     1
  9
$MEASUREMENT
 70
     0
  9
$CELWEIGHT
370
    -1
  9
$ENDCAPS
280
     0
  9
$JOINSTYLE
280
     0
  9
$LWDISPLAY
290
     0
  9
$INSUNITS
 70
     0
  9
$HYPERLINKBASE
  1

  9
$STYLESHEET
  1

  9
$XEDIT
290
     1
  9
$CEPSNTYPE
380
     0
  9
$PSTYLEMODE
290
     1
  9
$FINGERPRINTGUID
  2
{58BCB2EB-641D-4B3E-8F37-2A19441AD6E3}
  9
$VERSIONGUID
  2
{44E8B42F-F5B0-4640-A291-CDB81EEA5679}
  9
$EXTNAMES
290
     1
  9
$PSVPSCALE
 40
0.0
  9
$OLESTARTUP
290
     0
  0
ENDSEC
  0
SECTION
  2
CLASSES
  0
CLASS
  1
ACDBDICTIONARYWDFLT
  2
AcDbDictionaryWithDefault
  3
AutoCAD 2000
 90
        0
280
     0
281
     0
  0
CLASS
  1
ACDBPLACEHOLDER
  2
AcDbPlaceHolder
  3
AutoCAD 2000
 90
        0
280
     0
281
     0
  0
CLASS
  1
LAYOUT
  2
AcDbLayout
  3
AutoCAD 2000
 90
        0
280
     0
281
     0
  0
ENDSEC
  0
SECTION
  2
TABLES
  0
TABLE
  2
VPORT
  5
8
330
0
100
AcDbSymbolTable
 70
     2
  0
VPORT
  5
598
330
8
100
AcDbSymbolTableRecord
100
AcDbViewportTableRecord
  2
*Active
 70
     0
 10
0.0
 20
0.0
 11
1.0
 21
1.0
 12
463.7724669157416
 22
814.6291056022514
 13
0.0
 23
0.0
 14
1.0
 24
1.0
 15
0.0
 25
0.0
 16
0.0
 26
0.0
 36
1.0
 17
0.0
 27
0.0
 37
0.0
 40
951.8237898006523
 41
1.461725394896719
 42
50.0
 43
0.0
 44
0.0
 50
0.0
 51
0.0
 71
     0
 72
   100
 73
     1
 74
     1
 75
     0
 76
     0
 77
     0
 78
     0
281
     0
 65
     1
110
0.0
120
0.0
130
0.0
111
1.0
121
0.0
131
0.0
112
0.0
122
1.0
132
0.0
 79
     0
146
0.0
  0
ENDTAB
  0
TABLE
  2
LTYPE
  5
5
330
0
100
AcDbSymbolTable
 70
     5
  0
LTYPE
  5
13
330
5
100
AcDbSymbolTableRecord
100
AcDbLinetypeTableRecord
  2
ByBlock
 70
     0
  3

 72
    65
 73
     0
 40
0.0
  0
LTYPE
  5
14
330
5
100
AcDbSymbolTableRecord
100
AcDbLinetypeTableRecord
  2
ByLayer
 70
     0
  3

 72
    65
 73
     0
 40
0.0
  0
LTYPE
  5
15
330
5
100
AcDbSymbolTableRecord
100
AcDbLinetypeTableRecord
  2
CONTINUOUS
 70
     0
  3
Solid line
 72
    65
 73
     0
 40
0.0
  0
LTYPE
  5
22
330
5
100
AcDbSymbolTableRecord
100
AcDbLinetypeTableRecord
  2
HIDDEN
 70
     0
  3
------------------------
 72
    65
 73
     2
 40
12.6
 49
8.4
 74
     0
 49
-4.2
 74
     0
  0
LTYPE
  5
23
330
5
100
AcDbSymbolTableRecord
100
AcDbLinetypeTableRecord
  2
DOT
 70
     0
  3
････････････････････････
 72
    65
 73
     2
 40
8.0
 49
6.0
 74
     0
 49
-2.0
 74
     0
  0
LTYPE
  5
24
330
5
100
AcDbSymbolTableRecord
100
AcDbLinetypeTableRecord
  2
DASHDOT
 70
     0
  3
--･--･--･--･--･--･--･--
 72
    65
 73
     4
 40
50.5
 49
30.0
 74
     0
 49
-9.0
 74
     0
 49
2.5
 74
     0
 49
-9.0
 74
     0
  0
LTYPE
  5
25
330
5
100
AcDbSymbolTableRecord
100
AcDbLinetypeTableRecord
  2
DIVIDE
 70
     0
  3
--･･--･･--･･--･･--･･--
 72
    65
 73
     6
 40
58.0
 49
30.0
 74
     0
 49
-9.0
 74
     0
 49
2.5
 74
     0
 49
-5.0
 74
     0
 49
2.5
 74
     0
 49
-9.0
 74
     0
  0
ENDTAB
  0
TABLE
  2
LAYER
  5
2
330
0
100
AcDbSymbolTable
 70
     3
  0
LAYER
  5
10
330
2
100
AcDbSymbolTableRecord
100
AcDbLayerTableRecord
  2
0
 70
     0
 62
     7
  6
CONTINUOUS
370
    -3
390
F
  0
LAYER
  5
26
330
2
100
AcDbSymbolTableRecord
100
AcDbLayerTableRecord
  2
1
 70
     0
 62
     7
  6
CONTINUOUS
370
    -3
390
F
  0
LAYER
  5
93
330
2
100
AcDbSymbolTableRecord
100
AcDbLayerTableRecord
  2
Defpoints
 70
     0
 62
     7
  6
CONTINUOUS
290
     0
370
    -3
390
F
  0
ENDTAB
  0
TABLE
  2
STYLE
  5
3
330
0
100
AcDbSymbolTable
 70
     2
  0
STYLE
  5
11
330
3
100
AcDbSymbolTableRecord
100
AcDbTextStyleTableRecord
  2
STANDARD
 70
     0
 40
0.0
 41
1.0
 50
0.0
 71
     0
 42
0.2
  3
TXT
  4

  0
STYLE
  5
27
330
3
100
AcDbSymbolTableRecord
100
AcDbTextStyleTableRecord
  2
KANJI
 70
     0
 40
0.0
 41
1.0
 50
0.0
 71
     0
 42
0.2
  3
TXT
  4
BIGFONT
  0
ENDTAB
  0
TABLE
  2
VIEW
  5
6
330
0
100
AcDbSymbolTable
 70
     0
  0
ENDTAB
  0
TABLE
  2
UCS
  5
7
330
0
100
AcDbSymbolTable
 70
     0
  0
ENDTAB
  0
TABLE
  2
APPID
  5
9
330
0
100
AcDbSymbolTable
 70
     1
  0
APPID
  5
12
330
9
100
AcDbSymbolTableRecord
100
AcDbRegAppTableRecord
  2
ACAD
 70
     0
  0
ENDTAB
  0
TABLE
  2
DIMSTYLE
  5
A
330
0
100
AcDbSymbolTable
 70
     1
100
AcDbDimStyleTable
 71
     1
340
55D
  0
DIMSTYLE
105
55D
330
A
100
AcDbSymbolTableRecord
100
AcDbDimStyleTableRecord
  2
Standard
 70
     0
340
11
  0
ENDTAB
  0
TABLE
  2
BLOCK_RECORD
  5
1
330
0
100
AcDbSymbolTable
 70
     8
  0
BLOCK_RECORD
  5
1E
330
1
100
AcDbSymbolTableRecord
100
AcDbBlockTableRecord
  2
*Model_Space
340
21
  0
BLOCK_RECORD
  5
1A
330
1
100
AcDbSymbolTableRecord
100
AcDbBlockTableRecord
  2
*Paper_Space
340
1D
  0
BLOCK_RECORD
  5
2B
330
1
100
AcDbSymbolTableRecord
100
AcDbBlockTableRecord
  2
*D0
340
0
  0
BLOCK_RECORD
  5
36
330
1
100
AcDbSymbolTableRecord
100
AcDbBlockTableRecord
  2
*D1
340
0
  0
BLOCK_RECORD
  5
41
330
1
100
AcDbSymbolTableRecord
100
AcDbBlockTableRecord
  2
*D2
340
0
  0
BLOCK_RECORD
  5
4C
330
1
100
AcDbSymbolTableRecord
100
AcDbBlockTableRecord
  2
*D3
340
0
  0
BLOCK_RECORD
  5
94
330
1
100
AcDbSymbolTableRecord
100
AcDbBlockTableRecord
  2
*D4
340
0
  0
BLOCK_RECORD
  5
473
330
1
100
AcDbSymbolTableRecord
100
AcDbBlockTableRecord
  2
*D5
340
0
  0
BLOCK_RECORD
  5
47F
330
1
100
AcDbSymbolTableRecord
100
AcDbBlockTableRecord
  2
*D6
340
0
  0
BLOCK_RECORD
  5
48B
330
1
100
AcDbSymbolTableRecord
100
AcDbBlockTableRecord
  2
*D7
340
0
  0
ENDTAB
  0
ENDSEC
  0
SECTION
  2
BLOCKS
  0
BLOCK
  5
1F
330
1E
100
AcDbEntity
  8
0
100
AcDbBlockBegin
  2
*Model_Space
 70
     0
 10
0.0
 20
0.0
 30
0.0
  3
*Model_Space
  1

  0
ENDBLK
  5
20
330
1E
100
AcDbEntity
  8
0
100
AcDbBlockEnd
  0
BLOCK
  5
1B
330
1A
100
AcDbEntity
 67
     1
  8
0
100
AcDbBlockBegin
  2
*Paper_Space
 70
     0
 10
0.0
 20
0.0
 30
0.0
  3
*Paper_Space
  1

  0
ENDBLK
  5
1C
330
1A
100
AcDbEntity
 67
     1
  8
0
100
AcDbBlockEnd
  0
BLOCK
  5
2C
330
2B
100
AcDbEntity
  8
1
  6
Continuous
 62
     7
100
AcDbBlockBegin
  2
*D0
 70
     1
 10
0.0
 20
0.0
 30
0.0
  3
*D0
  1

  0
LINE
  5
2D
330
2B
100
AcDbEntity
  8
1
  6
Continuous
 62
     7
100
AcDbLine
 10
183.0
 20
410.8151089999998
 30
0.0
 11
617.0
 21
410.8151089999998
 31
0.0
  0
LINE
  5
2E
330
2B
100
AcDbEntity
  8
1
  6
Continuous
 62
     7
100
AcDbLine
 10
183.0
 20
400.815109
 30
0.0
 11
183.0
 21
451.315109
 31
0.0
  0
LINE
  5
2F
330
2B
100
AcDbEntity
  8
1
  6
Continuous
 62
     7
100
AcDbLine
 10
617.0
 20
400.815109
 30
0.0
 11
617.0
 21
451.315109
 31
0.0
  0
LINE
  5
30
330
2B
100
AcDbEntity
  8
1
  6
Continuous
 62
     7
100
AcDbLine
 10
183.0
 20
410.8151089999998
 30
0.0
 11
202.318517
 21
415.99149
 31
0.0
  0
LINE
  5
31
330
2B
100
AcDbEntity
  8
1
  6
Continuous
 62
     7
100
AcDbLine
 10
183.0
 20
410.8151089999998
 30
0.0
 11
202.318517
 21
405.638728
 31
0.0
  0
LINE
  5
32
330
2B
100
AcDbEntity
  8
1
  6
Continuous
 62
     7
100
AcDbLine
 10
617.0
 20
410.8151089999998
 30
0.0
 11
597.6814829999997
 21
405.638728
 31
0.0
  0
LINE
  5
33
330
2B
100
AcDbEntity
  8
1
  6
Continuous
 62
     7
100
AcDbLine
 10
617.0
 20
410.8151089999998
 30
0.0
 11
597.6814829999997
 21
415.99149
 31
0.0
  0
TEXT
  5
34
330
2B
100
AcDbEntity
  8
1
  6
Continuous
 62
     7
100
AcDbText
 10
385.0
 20
410.8151089999998
 30
0.0
 40
20.0
  1
434
 41
0.5
  7
KANJI
100
AcDbText
  0
ENDBLK
  5
35
330
2B
100
AcDbEntity
  8
0
100
AcDbBlockEnd
  0
BLOCK
  5
37
330
36
100
AcDbEntity
  8
1
  6
Continuous
 62
     7
100
AcDbBlockBegin
  2
*D1
 70
     1
 10
0.0
 20
0.0
 30
0.0
  3
*D1
  1

  0
LINE
  5
38
330
36
100
AcDbEntity
  8
1
  6
Continuous
 62
     7
100
AcDbLine
 10
710.0
 20
430.0
 30
0.0
 11
710.0
 21
563.0
 31
0.0
  0
LINE
  5
39
330
36
100
AcDbEntity
  8
1
  6
Continuous
 62
     7
100
AcDbLine
 10
720.0
 20
470.0
 30
0.0
 11
630.0
 21
470.0
 31
0.0
  0
LINE
  5
3A
330
36
100
AcDbEntity
  8
1
  6
Continuous
 62
     7
100
AcDbLine
 10
720.0
 20
523.0
 30
0.0
 11
630.0
 21
523.0
 31
0.0
  0
LINE
  5
3B
330
36
100
AcDbEntity
  8
1
  6
Continuous
 62
     7
100
AcDbLine
 10
710.0
 20
470.0
 30
0.0
 11
715.176381
 21
450.681483
 31
0.0
  0
LINE
  5
3C
330
36
100
AcDbEntity
  8
1
  6
Continuous
 62
     7
100
AcDbLine
 10
710.0
 20
470.0
 30
0.0
 11
704.8236189999999
 21
450.681483
 31
0.0
  0
LINE
  5
3D
330
36
100
AcDbEntity
  8
1
  6
Continuous
 62
     7
100
AcDbLine
 10
710.0
 20
523.0
 30
0.0
 11
704.8236189999999
 21
542.318517
 31
0.0
  0
LINE
  5
3E
330
36
100
AcDbEntity
  8
1
  6
Continuous
 62
     7
100
AcDbLine
 10
710.0
 20
523.0
 30
0.0
 11
715.176381
 21
542.318517
 31
0.0
  0
TEXT
  5
3F
330
36
100
AcDbEntity
  8
1
  6
Continuous
 62
     7
100
AcDbText
 10
710.0
 20
476.4999999999998
 30
0.0
 40
20.0
  1
52.8
 50
90.0
 41
0.5555560000000001
  7
KANJI
100
AcDbText
  0
ENDBLK
  5
40
330
36
100
AcDbEntity
  8
0
100
AcDbBlockEnd
  0
BLOCK
  5
42
330
41
100
AcDbEntity
  8
1
  6
Continuous
 62
     7
100
AcDbBlockBegin
  2
*D2
 70
     1
 10
0.0
 20
0.0
 30
0.0
  3
*D2
  1

  0
LINE
  5
43
330
41
100
AcDbEntity
  8
1
  6
Continuous
 62
     7
100
AcDbLine
 10
770.0
 20
420.0
 30
0.0
 11
770.0
 21
563.0
 31
0.0
  0
LINE
  5
44
330
41
100
AcDbEntity
  8
1
  6
Continuous
 62
     7
100
AcDbLine
 10
780.0
 20
460.0
 30
0.0
 11
630.0
 21
460.0
 31
0.0
  0
LINE
  5
45
330
41
100
AcDbEntity
  8
1
  6
Continuous
 62
     7
100
AcDbLine
 10
780.0
 20
523.0
 30
0.0
 11
630.0
 21
523.0
 31
0.0
  0
LINE
  5
46
330
41
100
AcDbEntity
  8
1
  6
Continuous
 62
     7
100
AcDbLine
 10
770.0
 20
460.0
 30
0.0
 11
775.1763809999999
 21
440.681483
 31
0.0
  0
LINE
  5
47
330
41
100
AcDbEntity
  8
1
  6
Continuous
 62
     7
100
AcDbLine
 10
770.0
 20
460.0
 30
0.0
 11
764.823619
 21
440.681483
 31
0.0
  0
LINE
  5
48
330
41
100
AcDbEntity
  8
1
  6
Continuous
 62
     7
100
AcDbLine
 10
770.0
 20
523.0
 30
0.0
 11
764.823619
 21
542.318517
 31
0.0
  0
LINE
  5
49
330
41
100
AcDbEntity
  8
1
  6
Continuous
 62
     7
100
AcDbLine
 10
770.0
 20
523.0
 30
0.0
 11
775.1763809999999
 21
542.318517
 31
0.0
  0
TEXT
  5
4A
330
41
100
AcDbEntity
  8
1
  6
Continuous
 62
     7
100
AcDbText
 10
770.0
 20
481.5
 30
0.0
 40
20.0
  1
63
 50
90.0
 41
0.5
  7
KANJI
100
AcDbText
  0
ENDBLK
  5
4B
330
41
100
AcDbEntity
  8
0
100
AcDbBlockEnd
  0
BLOCK
  5
4D
330
4C
100
AcDbEntity
  8
1
  6
Continuous
 62
     7
100
AcDbBlockBegin
  2
*D3
 70
     1
 10
0.0
 20
0.0
 30
0.0
  3
*D3
  1

  0
LINE
  5
4E
330
4C
100
AcDbEntity
  8
1
  6
Continuous
 62
     7
100
AcDbLine
 10
710.0
 20
667.0151409999999
 30
0.0
 11
710.0
 21
1020.0
 31
0.0
  0
LINE
  5
4F
330
4C
100
AcDbEntity
  8
1
  6
Continuous
 62
     7
100
AcDbLine
 10
720.0
 20
667.0151409999999
 30
0.0
 11
630.0
 21
667.0151409999999
 31
0.0
  0
LINE
  5
50
330
4C
100
AcDbEntity
  8
1
  6
Continuous
 62
     7
100
AcDbLine
 10
720.0
 20
1020.0
 30
0.0
 11
630.0
 21
1020.0
 31
0.0
  0
LINE
  5
51
330
4C
100
AcDbEntity
  8
1
  6
Continuous
 62
     7
100
AcDbLine
 10
710.0
 20
667.0151409999999
 30
0.0
 11
704.8236189999999
 21
686.333658
 31
0.0
  0
LINE
  5
52
330
4C
100
AcDbEntity
  8
1
  6
Continuous
 62
     7
100
AcDbLine
 10
710.0
 20
667.0151409999999
 30
0.0
 11
715.176381
 21
686.333658
 31
0.0
  0
LINE
  5
53
330
4C
100
AcDbEntity
  8
1
  6
Continuous
 62
     7
100
AcDbLine
 10
710.0
 20
1020.0
 30
0.0
 11
715.176381
 21
1000.681482999999
 31
0.0
  0
LINE
  5
54
330
4C
100
AcDbEntity
  8
1
  6
Continuous
 62
     7
100
AcDbLine
 10
710.0
 20
1020.0
 30
0.0
 11
704.8236189999999
 21
1000.681482999999
 31
0.0
  0
TEXT
  5
55
330
4C
100
AcDbEntity
  8
1
  6
Continuous
 62
     7
100
AcDbText
 10
710.0
 20
828.5075709999999
 30
0.0
 40
20.0
  1
353
 50
90.0
 41
0.5
  7
KANJI
100
AcDbText
  0
ENDBLK
  5
56
330
4C
100
AcDbEntity
  8
0
100
AcDbBlockEnd
  0
BLOCK
  5
9D
330
94
100
AcDbEntity
  8
0
100
AcDbBlockBegin
  2
*D4
 70
     1
 10
0.0
 20
0.0
 30
0.0
  3
*D4
  1

  0
LINE
  5
95
330
94
100
AcDbEntity
  8
1
  6
Continuous
 62
     0
370
    -2
100
AcDbLine
 10
183.0
 20
451.315109
 30
0.0
 11
183.0
 21
410.8151089999998
 31
0.0
  0
LINE
  5
96
330
94
100
AcDbEntity
  8
1
  6
Continuous
 62
     0
370
    -2
100
AcDbLine
 10
617.0
 20
451.315109
 30
0.0
 11
617.0
 21
410.8151089999998
 31
0.0
  0
LINE
  5
97
330
94
100
AcDbEntity
  8
1
  6
Continuous
 62
     0
370
    -2
100
AcDbLine
 10
184.0
 20
410.8151089999998
 30
0.0
 11
616.0
 21
410.8151089999998
 31
0.0
  0
SOLID
  5
98
330
94
100
AcDbEntity
  8
1
  6
Continuous
 62
     0
100
AcDbTrace
 10
184.0
 20
410.9817756666666
 30
0.0
 11
184.0
 21
410.6484423333331
 31
0.0
 12
183.0
 22
410.8151089999998
 32
0.0
 13
183.0
 23
410.8151089999998
 33
0.0
  0
SOLID
  5
99
330
94
100
AcDbEntity
  8
1
  6
Continuous
 62
     0
100
AcDbTrace
 10
616.0
 20
410.9817756666666
 30
0.0
 11
616.0
 21
410.6484423333331
 31
0.0
 12
617.0
 22
410.8151089999998
 32
0.0
 13
617.0
 23
410.8151089999998
 33
0.0
  0
POINT
  5
9A
330
94
100
AcDbEntity
  8
Defpoints
  6
Continuous
 62
     0
100
AcDbPoint
 10
183.0
 20
451.315109
 30
0.0
  0
POINT
  5
9B
330
94
100
AcDbEntity
  8
Defpoints
  6
Continuous
 62
     0
100
AcDbPoint
 10
617.0
 20
451.315109
 30
0.0
  0
POINT
  5
9C
330
94
100
AcDbEntity
  8
Defpoints
  6
Continuous
 62
     0
100
AcDbPoint
 10
617.0
 20
410.8151089999998
 30
0.0
  0
ENDBLK
  5
9E
330
94
100
AcDbEntity
  8
0
100
AcDbBlockEnd
  0
BLOCK
  5
47C
330
473
100
AcDbEntity
  8
0
100
AcDbBlockBegin
  2
*D5
 70
     1
 10
0.0
 20
0.0
 30
0.0
  3
*D5
  1

  0
LINE
  5
474
330
473
100
AcDbEntity
  8
1
  6
Continuous
 62
     0
370
    -2
100
AcDbLine
 10
630.0
 20
470.0
 30
0.0
 11
710.0
 21
469.9999999999998
 31
0.0
  0
LINE
  5
475
330
473
100
AcDbEntity
  8
1
  6
Continuous
 62
     0
370
    -2
100
AcDbLine
 10
630.0
 20
523.0
 30
0.0
 11
710.0
 21
523.0
 31
0.0
  0
LINE
  5
476
330
473
100
AcDbEntity
  8
1
  6
Continuous
 62
     0
370
    -2
100
AcDbLine
 10
710.0
 20
470.9999999999998
 30
0.0
 11
710.0
 21
522.0
 31
0.0
  0
SOLID
  5
477
330
473
100
AcDbEntity
  8
1
  6
Continuous
 62
     0
100
AcDbTrace
 10
709.8333333333332
 20
470.9999999999998
 30
0.0
 11
710.1666666666665
 21
470.9999999999998
 31
0.0
 12
710.0
 22
469.9999999999998
 32
0.0
 13
710.0
 23
469.9999999999998
 33
0.0
  0
SOLID
  5
478
330
473
100
AcDbEntity
  8
1
  6
Continuous
 62
     0
100
AcDbTrace
 10
709.8333333333332
 20
522.0
 30
0.0
 11
710.1666666666665
 21
522.0
 31
0.0
 12
710.0
 22
523.0
 32
0.0
 13
710.0
 23
523.0
 33
0.0
  0
POINT
  5
479
330
473
100
AcDbEntity
  8
Defpoints
  6
Continuous
 62
     0
100
AcDbPoint
 10
630.0
 20
470.0
 30
0.0
  0
POINT
  5
47A
330
473
100
AcDbEntity
  8
Defpoints
  6
Continuous
 62
     0
100
AcDbPoint
 10
630.0
 20
523.0
 30
0.0
  0
POINT
  5
47B
330
473
100
AcDbEntity
  8
Defpoints
  6
Continuous
 62
     0
100
AcDbPoint
 10
710.0
 20
523.0
 30
0.0
  0
ENDBLK
  5
47D
330
473
100
AcDbEntity
  8
0
100
AcDbBlockEnd
  0
BLOCK
  5
488
330
47F
100
AcDbEntity
  8
0
100
AcDbBlockBegin
  2
*D6
 70
     1
 10
0.0
 20
0.0
 30
0.0
  3
*D6
  1

  0
LINE
  5
480
330
47F
100
AcDbEntity
  8
1
  6
Continuous
 62
     0
370
    -2
100
AcDbLine
 10
630.0
 20
460.0
 30
0.0
 11
770.0
 21
459.9999999999998
 31
0.0
  0
LINE
  5
481
330
47F
100
AcDbEntity
  8
1
  6
Continuous
 62
     0
370
    -2
100
AcDbLine
 10
630.0
 20
523.0
 30
0.0
 11
770.0
 21
522.9999999999998
 31
0.0
  0
LINE
  5
482
330
47F
100
AcDbEntity
  8
1
  6
Continuous
 62
     0
370
    -2
100
AcDbLine
 10
770.0
 20
460.9999999999998
 30
0.0
 11
770.0
 21
521.9999999999998
 31
0.0
  0
SOLID
  5
483
330
47F
100
AcDbEntity
  8
1
  6
Continuous
 62
     0
100
AcDbTrace
 10
769.8333333333335
 20
460.9999999999998
 30
0.0
 11
770.1666666666665
 21
460.9999999999998
 31
0.0
 12
770.0
 22
459.9999999999998
 32
0.0
 13
770.0
 23
459.9999999999998
 33
0.0
  0
SOLID
  5
484
330
47F
100
AcDbEntity
  8
1
  6
Continuous
 62
     0
100
AcDbTrace
 10
769.8333333333335
 20
521.9999999999998
 30
0.0
 11
770.1666666666665
 21
521.9999999999998
 31
0.0
 12
770.0
 22
522.9999999999998
 32
0.0
 13
770.0
 23
522.9999999999998
 33
0.0
  0
POINT
  5
485
330
47F
100
AcDbEntity
  8
Defpoints
  6
Continuous
 62
     0
100
AcDbPoint
 10
630.0
 20
460.0
 30
0.0
  0
POINT
  5
486
330
47F
100
AcDbEntity
  8
Defpoints
  6
Continuous
 62
     0
100
AcDbPoint
 10
630.0
 20
523.0
 30
0.0
  0
POINT
  5
487
330
47F
100
AcDbEntity
  8
Defpoints
  6
Continuous
 62
     0
100
AcDbPoint
 10
770.0
 20
522.9999999999998
 30
0.0
  0
ENDBLK
  5
489
330
47F
100
AcDbEntity
  8
0
100
AcDbBlockEnd
  0
BLOCK
  5
494
330
48B
100
AcDbEntity
  8
0
100
AcDbBlockBegin
  2
*D7
 70
     1
 10
0.0
 20
0.0
 30
0.0
  3
*D7
  1

  0
LINE
  5
48C
330
48B
100
AcDbEntity
  8
1
  6
Continuous
 62
     0
370
    -2
100
AcDbLine
 10
630.0
 20
667.0151409999999
 30
0.0
 11
710.0
 21
667.0151409999999
 31
0.0
  0
LINE
  5
48D
330
48B
100
AcDbEntity
  8
1
  6
Continuous
 62
     0
370
    -2
100
AcDbLine
 10
630.0
 20
1020.0
 30
0.0
 11
710.0000000000001
 21
1020.0
 31
0.0
  0
LINE
  5
48E
330
48B
100
AcDbEntity
  8
1
  6
Continuous
 62
     0
370
    -2
100
AcDbLine
 10
710.0
 20
668.0151409999997
 30
0.0
 11
710.0000000000001
 21
1019.0
 31
0.0
  0
SOLID
  5
48F
330
48B
100
AcDbEntity
  8
1
  6
Continuous
 62
     0
100
AcDbTrace
 10
709.8333333333332
 20
668.0151409999997
 30
0.0
 11
710.1666666666665
 21
668.0151409999997
 31
0.0
 12
710.0
 22
667.0151409999999
 32
0.0
 13
710.0
 23
667.0151409999999
 33
0.0
  0
SOLID
  5
490
330
48B
100
AcDbEntity
  8
1
  6
Continuous
 62
     0
100
AcDbTrace
 10
709.8333333333335
 20
1019.0
 30
0.0
 11
710.1666666666667
 21
1019.0
 31
0.0
 12
710.0000000000001
 22
1020.0
 32
0.0
 13
710.0000000000001
 23
1020.0
 33
0.0
  0
POINT
  5
491
330
48B
100
AcDbEntity
  8
Defpoints
  6
Continuous
 62
     0
100
AcDbPoint
 10
630.0
 20
667.0151409999999
 30
0.0
  0
POINT
  5
492
330
48B
100
AcDbEntity
  8
Defpoints
  6
Continuous
 62
     0
100
AcDbPoint
 10
630.0
 20
1020.0
 30
0.0
  0
POINT
  5
493
330
48B
100
AcDbEntity
  8
Defpoints
  6
Continuous
 62
     0
100
AcDbPoint
 10
710.0000000000001
 20
1020.0
 30
0.0
  0
ENDBLK
  5
495
330
48B
100
AcDbEntity
  8
0
100
AcDbBlockEnd
  0
ENDSEC
  0
SECTION
  2
ENTITIES
  0
LINE
  5
A3
330
1E
100
AcDbEntity
  8
1
  6
Continuous
 62
     7
100
AcDbLine
 10
215.0
 20
467.4999999999998
 30
0.0
 11
215.0
 21
462.5
 31
0.0
  0
LINE
  5
A4
330
1E
100
AcDbEntity
  8
1
  6
Continuous
 62
     7
100
AcDbLine
 10
215.0
 20
462.5
 30
0.0
 11
255.0
 21
462.5
 31
0.0
  0
LINE
  5
A5
330
1E
100
AcDbEntity
  8
1
  6
Continuous
 62
     7
100
AcDbLine
 10
255.0
 20
462.5
 30
0.0
 11
255.0
 21
467.4999999999998
 31
0.0
  0
LINE
  5
A6
330
1E
100
AcDbEntity
  8
1
  6
Continuous
 62
     7
100
AcDbLine
 10
255.0
 20
467.4999999999998
 30
0.0
 11
215.0
 21
467.4999999999998
 31
0.0
  0
LINE
  5
A7
330
1E
100
AcDbEntity
  8
1
  6
Continuous
 62
     7
100
AcDbLine
 10
215.0
 20
462.5
 30
0.0
 11
217.5
 21
460.0
 31
0.0
  0
LINE
  5
A8
330
1E
100
AcDbEntity
  8
1
  6
Continuous
 62
     7
100
AcDbLine
 10
217.5
 20
460.0
 30
0.0
 11
252.4999999999999
 21
460.0
 31
0.0
  0
LINE
  5
A9
330
1E
100
AcDbEntity
  8
1
  6
Continuous
 62
     7
100
AcDbLine
 10
252.4999999999999
 20
460.0
 30
0.0
 11
255.0
 21
462.5
 31
0.0
  0
LINE
  5
AA
330
1E
100
AcDbEntity
  8
1
  6
Continuous
 62
     7
100
AcDbLine
 10
215.0
 20
467.4999999999998
 30
0.0
 11
217.5
 21
470.0
 31
0.0
  0
LINE
  5
AB
330
1E
100
AcDbEntity
  8
1
  6
Continuous
 62
     7
100
AcDbLine
 10
252.4999999999999
 20
470.0
 30
0.0
 11
255.0
 21
467.4999999999998
 31
0.0
  0
LINE
  5
AC
330
1E
100
AcDbEntity
  8
1
  6
Continuous
 62
     7
100
AcDbLine
 10
545.0
 20
467.4999999999998
 30
0.0
 11
545.0
 21
462.5
 31
0.0
  0
LINE
  5
AD
330
1E
100
AcDbEntity
  8
1
  6
Continuous
 62
     7
100
AcDbLine
 10
545.0
 20
462.5
 30
0.0
 11
585.0
 21
462.5
 31
0.0
  0
LINE
  5
AE
330
1E
100
AcDbEntity
  8
1
  6
Continuous
 62
     7
100
AcDbLine
 10
585.0
 20
462.5
 30
0.0
 11
585.0
 21
467.4999999999998
 31
0.0
  0
LINE
  5
AF
330
1E
100
AcDbEntity
  8
1
  6
Continuous
 62
     7
100
AcDbLine
 10
585.0
 20
467.4999999999998
 30
0.0
 11
545.0
 21
467.4999999999998
 31
0.0
  0
LINE
  5
B0
330
1E
100
AcDbEntity
  8
1
  6
Continuous
 62
     7
100
AcDbLine
 10
545.0
 20
462.5
 30
0.0
 11
547.5
 21
460.0
 31
0.0
  0
LINE
  5
B1
330
1E
100
AcDbEntity
  8
1
  6
Continuous
 62
     7
100
AcDbLine
 10
547.5
 20
460.0
 30
0.0
 11
582.5
 21
460.0
 31
0.0
  0
LINE
  5
B2
330
1E
100
AcDbEntity
  8
1
  6
Continuous
 62
     7
100
AcDbLine
 10
582.5
 20
460.0
 30
0.0
 11
585.0
 21
462.5
 31
0.0
  0
LINE
  5
B3
330
1E
100
AcDbEntity
  8
1
  6
Continuous
 62
     7
100
AcDbLine
 10
545.0
 20
467.4999999999998
 30
0.0
 11
547.5
 21
470.0
 31
0.0
  0
LINE
  5
B4
330
1E
100
AcDbEntity
  8
1
  6
Continuous
 62
     7
100
AcDbLine
 10
582.5
 20
470.0
 30
0.0
 11
585.0
 21
467.4999999999998
 31
0.0
  0
LINE
  5
B5
330
1E
100
AcDbEntity
  8
1
  6
Continuous
 62
     7
100
AcDbLine
 10
182.0
 20
507.5
 30
0.0
 11
182.0
 21
519.0
 31
0.0
  0
LINE
  5
B6
330
1E
100
AcDbEntity
  8
1
  6
Continuous
 62
     7
100
AcDbLine
 10
182.0
 20
519.0
 30
0.0
 11
300.0
 21
519.0
 31
0.0
  0
LINE
  5
B7
330
1E
100
AcDbEntity
  8
1
  6
Continuous
 62
     7
100
AcDbLine
 10
300.0
 20
519.0
 30
0.0
 11
400.0
 21
515.5
 31
0.0
  0
LINE
  5
B8
330
1E
100
AcDbEntity
  8
1
  6
Continuous
 62
     7
100
AcDbLine
 10
400.0
 20
515.5
 30
0.0
 11
500.0
 21
519.0
 31
0.0
  0
LINE
  5
B9
330
1E
100
AcDbEntity
  8
1
  6
Continuous
 62
     7
100
AcDbLine
 10
500.0
 20
519.0
 30
0.0
 11
618.0
 21
519.0
 31
0.0
  0
LINE
  5
BA
330
1E
100
AcDbEntity
  8
1
  6
Continuous
 62
     7
100
AcDbLine
 10
618.0
 20
519.0
 30
0.0
 11
618.0
 21
507.5
 31
0.0
  0
LINE
  5
BB
330
1E
100
AcDbEntity
  8
1
  6
Continuous
 62
     7
100
AcDbLine
 10
182.0
 20
485.5
 30
0.0
 11
182.0
 21
474.0
 31
0.0
  0
LINE
  5
BC
330
1E
100
AcDbEntity
  8
1
  6
Continuous
 62
     7
100
AcDbLine
 10
182.0
 20
474.0
 30
0.0
 11
300.0
 21
474.0
 31
0.0
  0
LINE
  5
BD
330
1E
100
AcDbEntity
  8
1
  6
Continuous
 62
     7
100
AcDbLine
 10
300.0
 20
474.0
 30
0.0
 11
400.0
 21
477.5
 31
0.0
  0
LINE
  5
BE
330
1E
100
AcDbEntity
  8
1
  6
Continuous
 62
     7
100
AcDbLine
 10
400.0
 20
477.5
 30
0.0
 11
500.0
 21
474.0
 31
0.0
  0
LINE
  5
BF
330
1E
100
AcDbEntity
  8
1
  6
Continuous
 62
     7
100
AcDbLine
 10
500.0
 20
474.0
 30
0.0
 11
618.0
 21
474.0
 31
0.0
  0
LINE
  5
C0
330
1E
100
AcDbEntity
  8
1
  6
Continuous
 62
     7
100
AcDbLine
 10
618.0
 20
474.0
 30
0.0
 11
618.0
 21
485.5
 31
0.0
  0
LINE
  5
C1
330
1E
100
AcDbEntity
  8
1
  6
Continuous
 62
     7
100
AcDbLine
 10
182.0
 20
507.5
 30
0.0
 11
191.585786
 21
497.9142139999998
 31
0.0
  0
LINE
  5
C2
330
1E
100
AcDbEntity
  8
1
  6
Continuous
 62
     7
100
AcDbLine
 10
191.585786
 20
495.085786
 30
0.0
 11
182.0
 21
485.5
 31
0.0
  0
ARC
  5
C3
330
1E
100
AcDbEntity
  8
1
  6
Continuous
 62
     7
100
AcDbCircle
 10
190.171573
 20
496.4999999999998
 30
0.0
 40
2.0
100
AcDbArc
 50
315.0
 51
45.0
  0
LINE
  5
C4
330
1E
100
AcDbEntity
  8
1
  6
Continuous
 62
     7
100
AcDbLine
 10
183.0
 20
506.5
 30
0.0
 11
183.0
 21
486.5
 31
0.0
  0
LINE
  5
C5
330
1E
100
AcDbEntity
  8
1
  6
Continuous
 62
     7
100
AcDbLine
 10
618.0
 20
507.5
 30
0.0
 11
608.4142139999999
 21
497.9142139999998
 31
0.0
  0
LINE
  5
C6
330
1E
100
AcDbEntity
  8
1
  6
Continuous
 62
     7
100
AcDbLine
 10
608.4142139999999
 20
495.085786
 30
0.0
 11
618.0
 21
485.5
 31
0.0
  0
ARC
  5
C7
330
1E
100
AcDbEntity
  8
1
  6
Continuous
 62
     7
100
AcDbCircle
 10
609.8284269999997
 20
496.4999999999998
 30
0.0
 40
2.0
100
AcDbArc
 50
135.0
 51
225.0
  0
LINE
  5
C8
330
1E
100
AcDbEntity
  8
1
  6
Continuous
 62
     7
100
AcDbLine
 10
617.0
 20
506.5
 30
0.0
 11
617.0
 21
486.5
 31
0.0
  0
LINE
  5
C9
330
1E
100
AcDbEntity
  8
1
  6
Continuous
 62
     7
100
AcDbLine
 10
183.0
 20
520.0
 30
0.0
 11
183.0
 21
519.0
 31
0.0
  0
ARC
  5
CA
330
1E
100
AcDbEntity
  8
1
  6
Continuous
 62
     7
100
AcDbCircle
 10
186.0
 20
520.0
 30
0.0
 40
3.0
100
AcDbArc
 50
90.0
 51
180.0
  0
LINE
  5
CB
330
1E
100
AcDbEntity
  8
1
  6
Continuous
 62
     7
100
AcDbLine
 10
614.0
 20
523.0
 30
0.0
 11
186.0
 21
523.0
 31
0.0
  0
LINE
  5
CC
330
1E
100
AcDbEntity
  8
1
  6
Continuous
 62
     7
100
AcDbLine
 10
617.0
 20
519.0
 30
0.0
 11
617.0
 21
520.0
 31
0.0
  0
ARC
  5
CD
330
1E
100
AcDbEntity
  8
1
  6
Continuous
 62
     7
100
AcDbCircle
 10
614.0
 20
520.0
 30
0.0
 40
3.0
100
AcDbArc
 50
0.0
 51
90.0
  0
LINE
  5
CE
330
1E
100
AcDbEntity
  8
1
  6
Continuous
 62
     7
100
AcDbLine
 10
183.0
 20
473.0
 30
0.0
 11
183.0
 21
474.0
 31
0.0
  0
ARC
  5
CF
330
1E
100
AcDbEntity
  8
1
  6
Continuous
 62
     7
100
AcDbCircle
 10
186.0
 20
473.0
 30
0.0
 40
3.0
100
AcDbArc
 50
180.0
 51
270.0
  0
LINE
  5
D0
330
1E
100
AcDbEntity
  8
1
  6
Continuous
 62
     7
100
AcDbLine
 10
614.0
 20
470.0
 30
0.0
 11
186.0
 21
470.0
 31
0.0
  0
LINE
  5
D1
330
1E
100
AcDbEntity
  8
1
  6
Continuous
 62
     7
100
AcDbLine
 10
617.0
 20
474.0
 30
0.0
 11
617.0
 21
473.0
 31
0.0
  0
ARC
  5
D2
330
1E
100
AcDbEntity
  8
1
  6
Continuous
 62
     7
100
AcDbCircle
 10
614.0
 20
473.0
 30
0.0
 40
3.0
100
AcDbArc
 50
270.0
 51
0.0
  0
ARC
  5
D3
330
1E
100
AcDbEntity
  8
1
  6
Continuous
 62
     7
100
AcDbCircle
 10
208.4999999999999
 20
512.0
 30
0.0
 40
1.5
100
AcDbArc
 50
90.0
 51
180.0
  0
LINE
  5
D4
330
1E
100
AcDbEntity
  8
1
  6
Continuous
 62
     7
100
AcDbLine
 10
207.0
 20
512.0
 30
0.0
 11
207.0
 21
495.0
 31
0.0
  0
ARC
  5
D5
330
1E
100
AcDbEntity
  8
1
  6
Continuous
 62
     7
100
AcDbCircle
 10
208.4999999999999
 20
495.0
 30
0.0
 40
1.5
100
AcDbArc
 50
180.0
 51
270.0
  0
LINE
  5
D6
330
1E
100
AcDbEntity
  8
1
  6
Continuous
 62
     7
100
AcDbLine
 10
208.4999999999999
 20
493.5
 30
0.0
 11
339.5
 21
493.5
 31
0.0
  0
ARC
  5
D7
330
1E
100
AcDbEntity
  8
1
  6
Continuous
 62
     7
100
AcDbCircle
 10
339.5
 20
495.0
 30
0.0
 40
1.5
100
AcDbArc
 50
270.0
 51
0.0
  0
LINE
  5
D8
330
1E
100
AcDbEntity
  8
1
  6
Continuous
 62
     7
100
AcDbLine
 10
341.0
 20
495.0
 30
0.0
 11
341.0
 21
512.0
 31
0.0
  0
LINE
  5
D9
330
1E
100
AcDbEntity
  8
1
  6
Continuous
 62
     7
100
AcDbLine
 10
339.5
 20
513.4999999999998
 30
0.0
 11
208.4999999999999
 21
513.4999999999998
 31
0.0
  0
ARC
  5
DA
330
1E
100
AcDbEntity
  8
1
  6
Continuous
 62
     7
100
AcDbCircle
 10
339.5
 20
512.0
 30
0.0
 40
1.5
100
AcDbArc
 50
0.0
 51
90.0
  0
ARC
  5
DB
330
1E
100
AcDbEntity
  8
1
  6
Continuous
 62
     7
100
AcDbCircle
 10
208.4999999999999
 20
512.0
 30
0.0
 40
2.5
100
AcDbArc
 50
90.0
 51
180.0
  0
LINE
  5
DC
330
1E
100
AcDbEntity
  8
1
  6
Continuous
 62
     7
100
AcDbLine
 10
206.0
 20
512.0
 30
0.0
 11
206.0
 21
495.0
 31
0.0
  0
ARC
  5
DD
330
1E
100
AcDbEntity
  8
1
  6
Continuous
 62
     7
100
AcDbCircle
 10
208.4999999999999
 20
495.0
 30
0.0
 40
2.5
100
AcDbArc
 50
180.0
 51
270.0
  0
LINE
  5
DE
330
1E
100
AcDbEntity
  8
1
  6
Continuous
 62
     7
100
AcDbLine
 10
208.4999999999999
 20
492.4999999999998
 30
0.0
 11
339.5
 21
492.4999999999998
 31
0.0
  0
ARC
  5
DF
330
1E
100
AcDbEntity
  8
1
  6
Continuous
 62
     7
100
AcDbCircle
 10
339.5
 20
495.0
 30
0.0
 40
2.5
100
AcDbArc
 50
270.0
 51
0.0
  0
LINE
  5
E0
330
1E
100
AcDbEntity
  8
1
  6
Continuous
 62
     7
100
AcDbLine
 10
342.0
 20
495.0
 30
0.0
 11
342.0
 21
512.0
 31
0.0
  0
LINE
  5
E1
330
1E
100
AcDbEntity
  8
1
  6
Continuous
 62
     7
100
AcDbLine
 10
339.5
 20
514.5
 30
0.0
 11
208.4999999999999
 21
514.5
 31
0.0
  0
ARC
  5
E2
330
1E
100
AcDbEntity
  8
1
  6
Continuous
 62
     7
100
AcDbCircle
 10
339.5
 20
512.0
 30
0.0
 40
2.5
100
AcDbArc
 50
0.0
 51
90.0
  0
ARC
  5
E3
330
1E
100
AcDbEntity
  8
1
  6
Continuous
 62
     7
100
AcDbCircle
 10
557.0
 20
496.4999999999998
 30
0.0
 40
20.5
100
AcDbArc
 50
119.196404
 51
240.8035959999998
  0
ARC
  5
E4
330
1E
100
AcDbEntity
  8
1
  6
Continuous
 62
     7
100
AcDbCircle
 10
557.0
 20
496.4999999999998
 30
0.0
 40
20.5
100
AcDbArc
 50
299.1964039999998
 51
60.80359600000002
  0
LINE
  5
E5
330
1E
100
AcDbEntity
  8
1
  6
Continuous
 62
     7
100
AcDbLine
 10
585.5
 20
488.75
 30
0.0
 11
585.5
 21
480.75
 31
0.0
  0
LINE
  5
E6
330
1E
100
AcDbEntity
  8
1
  6
Continuous
 62
     7
100
AcDbLine
 10
585.5
 20
480.75
 30
0.0
 11
600.4999999999999
 21
480.75
 31
0.0
  0
LINE
  5
E7
330
1E
100
AcDbEntity
  8
1
  6
Continuous
 62
     7
100
AcDbLine
 10
600.4999999999999
 20
480.75
 30
0.0
 11
600.4999999999999
 21
488.75
 31
0.0
  0
LINE
  5
E8
330
1E
100
AcDbEntity
  8
1
  6
Continuous
 62
     7
100
AcDbLine
 10
600.4999999999999
 20
488.75
 30
0.0
 11
585.5
 21
488.75
 31
0.0
  0
LINE
  5
E9
330
1E
100
AcDbEntity
  8
1
  6
Continuous
 62
     7
100
AcDbLine
 10
587.0
 20
482.2499999999998
 30
0.0
 11
587.0
 21
487.25
 31
0.0
  0
LINE
  5
EA
330
1E
100
AcDbEntity
  8
1
  6
Continuous
 62
     7
100
AcDbLine
 10
587.0
 20
487.25
 30
0.0
 11
599.0
 21
487.25
 31
0.0
  0
LINE
  5
EB
330
1E
100
AcDbEntity
  8
1
  6
Continuous
 62
     7
100
AcDbLine
 10
599.0
 20
487.25
 30
0.0
 11
599.0
 21
482.2499999999998
 31
0.0
  0
LINE
  5
EC
330
1E
100
AcDbEntity
  8
1
  6
Continuous
 62
     7
100
AcDbLine
 10
599.0
 20
482.2499999999998
 30
0.0
 11
587.0
 21
482.2499999999998
 31
0.0
  0
LINE
  5
ED
330
1E
100
AcDbEntity
  8
1
  6
Continuous
 62
     7
100
AcDbLine
 10
597.5
 20
485.7499999999998
 30
0.0
 11
597.5
 21
483.75
 31
0.0
  0
LINE
  5
EE
330
1E
100
AcDbEntity
  8
1
  6
Continuous
 62
     7
100
AcDbLine
 10
597.5
 20
483.75
 30
0.0
 11
588.4999999999998
 21
483.75
 31
0.0
  0
LINE
  5
EF
330
1E
100
AcDbEntity
  8
1
  6
Continuous
 62
     7
100
AcDbLine
 10
588.4999999999998
 20
483.75
 30
0.0
 11
588.4999999999998
 21
485.7499999999998
 31
0.0
  0
LINE
  5
F0
330
1E
100
AcDbEntity
  8
1
  6
Continuous
 62
     7
100
AcDbLine
 10
588.4999999999998
 20
485.7499999999998
 30
0.0
 11
597.5
 21
485.7499999999998
 31
0.0
  0
LINE
  5
F1
330
1E
100
AcDbEntity
  8
1
  6
Continuous
 62
     7
100
AcDbLine
 10
590.218246
 20
491.8637429999998
 30
0.0
 11
595.2089999999997
 21
491.8637429999998
 31
0.0
  0
LINE
  5
F2
330
1E
100
AcDbEntity
  8
1
  6
Continuous
 62
     7
100
AcDbLine
 10
595.2089999999997
 20
491.8637429999998
 30
0.0
 11
595.2089999999997
 21
492.6137429999998
 31
0.0
  0
LINE
  5
F3
330
1E
100
AcDbEntity
  8
1
  6
Continuous
 62
     7
100
AcDbLine
 10
595.2089999999997
 20
492.6137429999998
 30
0.0
 11
596.75
 21
491.6137429999998
 31
0.0
  0
LINE
  5
F4
330
1E
100
AcDbEntity
  8
1
  6
Continuous
 62
     7
100
AcDbLine
 10
596.75
 20
491.6137429999998
 30
0.0
 11
595.2089999999997
 21
490.6137429999998
 31
0.0
  0
LINE
  5
F5
330
1E
100
AcDbEntity
  8
1
  6
Continuous
 62
     7
100
AcDbLine
 10
595.2089999999997
 20
490.6137429999998
 30
0.0
 11
595.2089999999997
 21
491.3637429999998
 31
0.0
  0
LINE
  5
F6
330
1E
100
AcDbEntity
  8
1
  6
Continuous
 62
     7
100
AcDbLine
 10
595.2089999999997
 20
491.3637429999998
 30
0.0
 11
590.218246
 21
491.3637429999998
 31
0.0
  0
ARC
  5
F7
330
1E
100
AcDbEntity
  8
1
  6
Continuous
 62
     7
100
AcDbCircle
 10
589.25
 20
491.6137429999998
 30
0.0
 40
1.0
100
AcDbArc
 50
14.47751199999999
 51
345.522488
  0
CIRCLE
  5
F8
330
1E
100
AcDbEntity
  8
1
  6
Continuous
 62
     7
100
AcDbCircle
 10
592.585427
 20
492.6137429999998
 30
0.0
 40
0.5
  0
CIRCLE
  5
F9
330
1E
100
AcDbEntity
  8
1
  6
Continuous
 62
     7
100
AcDbCircle
 10
593.554532
 20
490.6137429999998
 30
0.0
 40
0.5
  0
LINE
  5
FA
330
1E
100
AcDbEntity
  8
1
  6
Continuous
 62
     7
100
AcDbLine
 10
590.6875
 20
491.8637429999998
 30
0.0
 11
590.6875
 21
492.1137429999998
 31
0.0
  0
LINE
  5
FB
330
1E
100
AcDbEntity
  8
1
  6
Continuous
 62
     7
100
AcDbLine
 10
591.1875
 20
492.6137429999998
 30
0.0
 11
592.0854269999997
 21
492.6137429999998
 31
0.0
  0
ARC
  5
FC
330
1E
100
AcDbEntity
  8
1
  6
Continuous
 62
     7
100
AcDbCircle
 10
591.1875
 20
492.1137429999998
 30
0.0
 40
0.5
100
AcDbArc
 50
90.0
 51
180.0
  0
LINE
  5
FD
330
1E
100
AcDbEntity
  8
1
  6
Continuous
 62
     7
100
AcDbLine
 10
590.6875
 20
491.3637429999998
 30
0.0
 11
590.6875
 21
491.1137429999998
 31
0.0
  0
LINE
  5
FE
330
1E
100
AcDbEntity
  8
1
  6
Continuous
 62
     7
100
AcDbLine
 10
591.1875
 20
490.6137429999998
 30
0.0
 11
593.054532
 21
490.6137429999998
 31
0.0
  0
ARC
  5
FF
330
1E
100
AcDbEntity
  8
1
  6
Continuous
 62
     7
100
AcDbCircle
 10
591.1875
 20
491.1137429999998
 30
0.0
 40
0.5
100
AcDbArc
 50
180.0
 51
270.0
  0
LINE
  5
100
330
1E
100
AcDbEntity
  8
1
  6
Continuous
 62
     7
100
AcDbLine
 10
577.37615
 20
498.7499999999998
 30
0.0
 11
609.25
 21
498.7499999999998
 31
0.0
  0
LINE
  5
101
330
1E
100
AcDbEntity
  8
1
  6
Continuous
 62
     7
100
AcDbLine
 10
577.37615
 20
494.2499999999998
 30
0.0
 11
609.25
 21
494.2499999999998
 31
0.0
  0
LINE
  5
102
330
1E
100
AcDbEntity
  8
1
  6
Continuous
 62
     7
100
AcDbLine
 10
536.6238499999998
 20
498.7499999999998
 30
0.0
 11
342.0
 21
498.7499999999998
 31
0.0
  0
LINE
  5
103
330
1E
100
AcDbEntity
  8
1
  6
Continuous
 62
     7
100
AcDbLine
 10
341.8848479999998
 20
494.2499999999998
 30
0.0
 11
536.6238499999998
 21
494.2499999999998
 31
0.0
  0
LINE
  5
104
330
1E
100
AcDbEntity
  8
1
  6
Continuous
 62
     7
100
AcDbLine
 10
206.0
 20
498.7499999999998
 30
0.0
 11
190.7499999999999
 21
498.7499999999998
 31
0.0
  0
LINE
  5
105
330
1E
100
AcDbEntity
  8
1
  6
Continuous
 62
     7
100
AcDbLine
 10
190.7499999999999
 20
494.2499999999998
 30
0.0
 11
206.115152
 21
494.2499999999998
 31
0.0
  0
ARC
  5
106
330
1E
100
AcDbEntity
  8
1
  6
Continuous
 62
     7
100
AcDbCircle
 10
557.0
 20
496.4999999999998
 30
0.0
 40
19.0
100
AcDbArc
 50
140.2847299999999
 51
219.715265
  0
ARC
  5
107
330
1E
100
AcDbEntity
  8
1
  6
Continuous
 62
     7
100
AcDbCircle
 10
557.0
 20
496.4999999999998
 30
0.0
 40
19.0
100
AcDbArc
 50
230.2847299999999
 51
309.7152689999998
  0
ARC
  5
108
330
1E
100
AcDbEntity
  8
1
  6
Continuous
 62
     7
100
AcDbCircle
 10
557.000001
 20
496.4999989999998
 30
0.0
 40
18.999999
100
AcDbArc
 50
320.284739
 51
39.715274
  0
ARC
  5
109
330
1E
100
AcDbEntity
  8
1
  6
Continuous
 62
     7
100
AcDbCircle
 10
557.000001
 20
496.4999989999998
 30
0.0
 40
19.000001
100
AcDbArc
 50
50.284739
 51
129.715262
  0
ARC
  5
10A
330
1E
100
AcDbEntity
  8
1
  6
Continuous
 62
     7
100
AcDbCircle
 10
557.0
 20
496.4999999999998
 30
0.0
 40
11.0
100
AcDbArc
 50
54.154137
 51
125.845858
  0
ARC
  5
10B
330
1E
100
AcDbEntity
  8
1
  6
Continuous
 62
     7
100
AcDbCircle
 10
557.0
 20
496.4999999999998
 30
0.0
 40
11.0
100
AcDbArc
 50
144.154128
 51
215.8458639999999
  0
ARC
  5
10C
330
1E
100
AcDbEntity
  8
1
  6
Continuous
 62
     7
100
AcDbCircle
 10
557.0
 20
496.5000009999998
 30
0.0
 40
11.00000099999999
100
AcDbArc
 50
234.154131
 51
305.845869
  0
ARC
  5
10D
330
1E
100
AcDbEntity
  8
1
  6
Continuous
 62
     7
100
AcDbCircle
 10
557.0
 20
496.5000009999998
 30
0.0
 40
11.0
100
AcDbArc
 50
324.1541409999998
 51
35.84586799999997
  0
LINE
  5
10E
330
1E
100
AcDbEntity
  8
1
  6
Continuous
 62
     7
100
AcDbLine
 10
550.5583269999998
 20
505.416549
 30
0.0
 11
544.8595179999998
 21
511.1153579999998
 31
0.0
  0
LINE
  5
10F
330
1E
100
AcDbEntity
  8
1
  6
Continuous
 62
     7
100
AcDbLine
 10
548.083452
 20
502.941675
 30
0.0
 11
542.384643
 21
508.6404839999998
 31
0.0
  0
LINE
  5
110
330
1E
100
AcDbEntity
  8
1
  6
Continuous
 62
     7
100
AcDbLine
 10
548.083452
 20
490.0583259999998
 30
0.0
 11
542.384643
 21
484.3595169999998
 31
0.0
  0
LINE
  5
111
330
1E
100
AcDbEntity
  8
1
  6
Continuous
 62
     7
100
AcDbLine
 10
550.5583249999999
 20
487.5834519999998
 30
0.0
 11
544.8595159999999
 21
481.8846429999998
 31
0.0
  0
LINE
  5
112
330
1E
100
AcDbEntity
  8
1
  6
Continuous
 62
     7
100
AcDbLine
 10
563.441675
 20
487.5834519999998
 30
0.0
 11
569.140484
 21
481.8846429999998
 31
0.0
  0
LINE
  5
113
330
1E
100
AcDbEntity
  8
1
  6
Continuous
 62
     7
100
AcDbLine
 10
565.916549
 20
490.0583269999998
 30
0.0
 11
571.615359
 21
484.359518
 31
0.0
  0
LINE
  5
114
330
1E
100
AcDbEntity
  8
1
  6
Continuous
 62
     7
100
AcDbLine
 10
565.916548
 20
502.941675
 30
0.0
 11
571.6153559999997
 21
508.640483
 31
0.0
  0
LINE
  5
115
330
1E
100
AcDbEntity
  8
1
  6
Continuous
 62
     7
100
AcDbLine
 10
563.441674
 20
505.416549
 30
0.0
 11
569.140483
 21
511.1153569999998
 31
0.0
  0
CIRCLE
  5
116
330
1E
100
AcDbEntity
  8
1
  6
Continuous
 62
     7
100
AcDbCircle
 10
557.0
 20
496.4999999999998
 30
0.0
 40
9.5
  0
CIRCLE
  5
117
330
1E
100
AcDbEntity
  8
1
  6
Continuous
 62
     7
100
AcDbCircle
 10
557.000001
 20
496.4999989999998
 30
0.0
 40
6.0
  0
CIRCLE
  5
118
330
1E
100
AcDbEntity
  8
1
  6
Continuous
 62
     7
100
AcDbCircle
 10
557.000001
 20
496.4999989999998
 30
0.0
 40
4.0
  0
LINE
  5
119
330
1E
100
AcDbEntity
  8
1
  6
Continuous
 62
     7
100
AcDbLine
 10
544.0
 20
498.809402
 30
0.0
 11
544.0
 21
494.190599
 31
0.0
  0
LINE
  5
11A
330
1E
100
AcDbEntity
  8
1
  6
Continuous
 62
     7
100
AcDbLine
 10
544.0
 20
494.190599
 30
0.0
 11
540.0
 21
496.4999999999998
 31
0.0
  0
LINE
  5
11B
330
1E
100
AcDbEntity
  8
1
  6
Continuous
 62
     7
100
AcDbLine
 10
540.0
 20
496.4999999999998
 30
0.0
 11
544.0
 21
498.809402
 31
0.0
  0
LINE
  5
11C
330
1E
100
AcDbEntity
  8
1
  6
Continuous
 62
     7
100
AcDbLine
 10
554.6905989999998
 20
483.5000009999998
 30
0.0
 11
559.3094019999998
 21
483.5000009999998
 31
0.0
  0
LINE
  5
11D
330
1E
100
AcDbEntity
  8
1
  6
Continuous
 62
     7
100
AcDbLine
 10
559.3094019999998
 20
483.5000009999998
 30
0.0
 11
557.000001
 21
479.5000009999998
 31
0.0
  0
LINE
  5
11E
330
1E
100
AcDbEntity
  8
1
  6
Continuous
 62
     7
100
AcDbLine
 10
557.000001
 20
479.5000009999998
 30
0.0
 11
554.6905989999998
 21
483.5000009999998
 31
0.0
  0
LINE
  5
11F
330
1E
100
AcDbEntity
  8
1
  6
Continuous
 62
     7
100
AcDbLine
 10
570.0
 20
494.1906
 30
0.0
 11
570.0
 21
498.809403
 31
0.0
  0
LINE
  5
120
330
1E
100
AcDbEntity
  8
1
  6
Continuous
 62
     7
100
AcDbLine
 10
570.0
 20
498.809403
 30
0.0
 11
574.0
 21
496.5000019999997
 31
0.0
  0
LINE
  5
121
330
1E
100
AcDbEntity
  8
1
  6
Continuous
 62
     7
100
AcDbLine
 10
574.0
 20
496.5000019999997
 30
0.0
 11
570.0
 21
494.1906
 31
0.0
  0
LINE
  5
122
330
1E
100
AcDbEntity
  8
1
  6
Continuous
 62
     7
100
AcDbLine
 10
559.3094009999998
 20
509.5000009999998
 30
0.0
 11
554.690598
 21
509.5000009999998
 31
0.0
  0
LINE
  5
123
330
1E
100
AcDbEntity
  8
1
  6
Continuous
 62
     7
100
AcDbLine
 10
554.690598
 20
509.5000009999998
 30
0.0
 11
556.999999
 21
513.5000009999998
 31
0.0
  0
LINE
  5
124
330
1E
100
AcDbEntity
  8
1
  6
Continuous
 62
     7
100
AcDbLine
 10
556.999999
 20
513.5000009999998
 30
0.0
 11
559.3094009999998
 21
509.5000009999998
 31
0.0
  0
CIRCLE
  5
125
330
1E
100
AcDbEntity
  8
1
  6
Continuous
 62
     7
100
AcDbCircle
 10
593.0
 20
510.7499999999998
 30
0.0
 40
4.5
  0
CIRCLE
  5
126
330
1E
100
AcDbEntity
  8
1
  6
Continuous
 62
     7
100
AcDbCircle
 10
507.0
 20
506.7499999999998
 30
0.0
 40
4.0
  0
CIRCLE
  5
127
330
1E
100
AcDbEntity
  8
1
  6
Continuous
 62
     7
100
AcDbCircle
 10
507.0
 20
485.25
 30
0.0
 40
4.0
  0
CIRCLE
  5
128
330
1E
100
AcDbEntity
  8
1
  6
Continuous
 62
     7
100
AcDbCircle
 10
491.0
 20
506.7499999999998
 30
0.0
 40
4.0
  0
CIRCLE
  5
129
330
1E
100
AcDbEntity
  8
1
  6
Continuous
 62
     7
100
AcDbCircle
 10
491.0
 20
485.25
 30
0.0
 40
4.0
  0
CIRCLE
  5
12A
330
1E
100
AcDbEntity
  8
1
  6
Continuous
 62
     7
100
AcDbCircle
 10
475.0
 20
506.7499999999998
 30
0.0
 40
4.0
  0
CIRCLE
  5
12B
330
1E
100
AcDbEntity
  8
1
  6
Continuous
 62
     7
100
AcDbCircle
 10
475.0
 20
485.25
 30
0.0
 40
4.0
  0
ARC
  5
12C
330
1E
100
AcDbEntity
  8
1
  6
Continuous
 62
     7
100
AcDbCircle
 10
441.0
 20
506.7499999999998
 30
0.0
 40
3.5
100
AcDbArc
 50
90.0
 51
270.0
  0
ARC
  5
12D
330
1E
100
AcDbEntity
  8
1
  6
Continuous
 62
     7
100
AcDbCircle
 10
445.0
 20
506.7499999999998
 30
0.0
 40
3.5
100
AcDbArc
 50
270.0
 51
90.0
  0
LINE
  5
12E
330
1E
100
AcDbEntity
  8
1
  6
Continuous
 62
     7
100
AcDbLine
 10
441.0
 20
510.25
 30
0.0
 11
444.999999
 21
510.25
 31
0.0
  0
LINE
  5
12F
330
1E
100
AcDbEntity
  8
1
  6
Continuous
 62
     7
100
AcDbLine
 10
441.000001
 20
503.2499999999997
 30
0.0
 11
444.999999
 21
503.2499999999997
 31
0.0
  0
ARC
  5
130
330
1E
100
AcDbEntity
  8
1
  6
Continuous
 62
     7
100
AcDbCircle
 10
441.0
 20
485.25
 30
0.0
 40
3.5
100
AcDbArc
 50
90.0
 51
270.0
  0
ARC
  5
131
330
1E
100
AcDbEntity
  8
1
  6
Continuous
 62
     7
100
AcDbCircle
 10
445.0
 20
485.25
 30
0.0
 40
3.5
100
AcDbArc
 50
270.0
 51
90.0
  0
LINE
  5
132
330
1E
100
AcDbEntity
  8
1
  6
Continuous
 62
     7
100
AcDbLine
 10
441.0
 20
488.75
 30
0.0
 11
444.999999
 21
488.75
 31
0.0
  0
LINE
  5
133
330
1E
100
AcDbEntity
  8
1
  6
Continuous
 62
     7
100
AcDbLine
 10
441.000001
 20
481.7499999999998
 30
0.0
 11
444.999999
 21
481.7499999999998
 31
0.0
  0
ARC
  5
134
330
1E
100
AcDbEntity
  8
1
  6
Continuous
 62
     7
100
AcDbCircle
 10
425.0
 20
506.7499999999998
 30
0.0
 40
3.5
100
AcDbArc
 50
90.0
 51
270.0
  0
ARC
  5
135
330
1E
100
AcDbEntity
  8
1
  6
Continuous
 62
     7
100
AcDbCircle
 10
429.0
 20
506.7499999999998
 30
0.0
 40
3.5
100
AcDbArc
 50
270.0
 51
90.0
  0
LINE
  5
136
330
1E
100
AcDbEntity
  8
1
  6
Continuous
 62
     7
100
AcDbLine
 10
425.0
 20
510.25
 30
0.0
 11
428.999999
 21
510.25
 31
0.0
  0
LINE
  5
137
330
1E
100
AcDbEntity
  8
1
  6
Continuous
 62
     7
100
AcDbLine
 10
425.0000009999998
 20
503.2499999999997
 30
0.0
 11
428.999999
 21
503.2499999999997
 31
0.0
  0
ARC
  5
138
330
1E
100
AcDbEntity
  8
1
  6
Continuous
 62
     7
100
AcDbCircle
 10
425.0
 20
485.25
 30
0.0
 40
3.5
100
AcDbArc
 50
90.0
 51
270.0
  0
ARC
  5
139
330
1E
100
AcDbEntity
  8
1
  6
Continuous
 62
     7
100
AcDbCircle
 10
429.0
 20
485.25
 30
0.0
 40
3.5
100
AcDbArc
 50
270.0
 51
90.0
  0
LINE
  5
13A
330
1E
100
AcDbEntity
  8
1
  6
Continuous
 62
     7
100
AcDbLine
 10
425.0
 20
488.75
 30
0.0
 11
428.999999
 21
488.75
 31
0.0
  0
LINE
  5
13B
330
1E
100
AcDbEntity
  8
1
  6
Continuous
 62
     7
100
AcDbLine
 10
425.0000009999998
 20
481.7499999999998
 30
0.0
 11
428.999999
 21
481.7499999999998
 31
0.0
  0
ARC
  5
13C
330
1E
100
AcDbEntity
  8
1
  6
Continuous
 62
     7
100
AcDbCircle
 10
409.0
 20
506.7499999999998
 30
0.0
 40
3.5
100
AcDbArc
 50
90.0
 51
270.0
  0
ARC
  5
13D
330
1E
100
AcDbEntity
  8
1
  6
Continuous
 62
     7
100
AcDbCircle
 10
413.0
 20
506.7499999999998
 30
0.0
 40
3.5
100
AcDbArc
 50
270.0
 51
90.0
  0
LINE
  5
13E
330
1E
100
AcDbEntity
  8
1
  6
Continuous
 62
     7
100
AcDbLine
 10
409.0
 20
510.25
 30
0.0
 11
412.9999989999998
 21
510.25
 31
0.0
  0
LINE
  5
13F
330
1E
100
AcDbEntity
  8
1
  6
Continuous
 62
     7
100
AcDbLine
 10
409.0000009999998
 20
503.2499999999997
 30
0.0
 11
412.9999989999998
 21
503.2499999999997
 31
0.0
  0
ARC
  5
140
330
1E
100
AcDbEntity
  8
1
  6
Continuous
 62
     7
100
AcDbCircle
 10
409.0
 20
485.25
 30
0.0
 40
3.5
100
AcDbArc
 50
90.0
 51
270.0
  0
ARC
  5
141
330
1E
100
AcDbEntity
  8
1
  6
Continuous
 62
     7
100
AcDbCircle
 10
413.0
 20
485.25
 30
0.0
 40
3.5
100
AcDbArc
 50
270.0
 51
90.0
  0
LINE
  5
142
330
1E
100
AcDbEntity
  8
1
  6
Continuous
 62
     7
100
AcDbLine
 10
409.0
 20
488.75
 30
0.0
 11
412.9999989999998
 21
488.75
 31
0.0
  0
LINE
  5
143
330
1E
100
AcDbEntity
  8
1
  6
Continuous
 62
     7
100
AcDbLine
 10
409.0000009999998
 20
481.7499999999998
 30
0.0
 11
412.9999989999998
 21
481.7499999999998
 31
0.0
  0
ARC
  5
144
330
1E
100
AcDbEntity
  8
1
  6
Continuous
 62
     7
100
AcDbCircle
 10
393.0
 20
506.7499999999998
 30
0.0
 40
3.5
100
AcDbArc
 50
90.0
 51
270.0
  0
ARC
  5
145
330
1E
100
AcDbEntity
  8
1
  6
Continuous
 62
     7
100
AcDbCircle
 10
397.0
 20
506.7499999999998
 30
0.0
 40
3.5
100
AcDbArc
 50
270.0
 51
90.0
  0
LINE
  5
146
330
1E
100
AcDbEntity
  8
1
  6
Continuous
 62
     7
100
AcDbLine
 10
393.0
 20
510.25
 30
0.0
 11
396.999999
 21
510.25
 31
0.0
  0
LINE
  5
147
330
1E
100
AcDbEntity
  8
1
  6
Continuous
 62
     7
100
AcDbLine
 10
393.000001
 20
503.2499999999997
 30
0.0
 11
396.999999
 21
503.2499999999997
 31
0.0
  0
ARC
  5
148
330
1E
100
AcDbEntity
  8
1
  6
Continuous
 62
     7
100
AcDbCircle
 10
393.0
 20
485.25
 30
0.0
 40
3.5
100
AcDbArc
 50
90.0
 51
270.0
  0
ARC
  5
149
330
1E
100
AcDbEntity
  8
1
  6
Continuous
 62
     7
100
AcDbCircle
 10
397.0
 20
485.25
 30
0.0
 40
3.5
100
AcDbArc
 50
270.0
 51
90.0
  0
LINE
  5
14A
330
1E
100
AcDbEntity
  8
1
  6
Continuous
 62
     7
100
AcDbLine
 10
393.0
 20
488.75
 30
0.0
 11
396.999999
 21
488.75
 31
0.0
  0
LINE
  5
14B
330
1E
100
AcDbEntity
  8
1
  6
Continuous
 62
     7
100
AcDbLine
 10
393.000001
 20
481.7499999999998
 30
0.0
 11
396.999999
 21
481.7499999999998
 31
0.0
  0
ARC
  5
14C
330
1E
100
AcDbEntity
  8
1
  6
Continuous
 62
     7
100
AcDbCircle
 10
377.0
 20
506.7499999999998
 30
0.0
 40
3.5
100
AcDbArc
 50
90.0
 51
270.0
  0
ARC
  5
14D
330
1E
100
AcDbEntity
  8
1
  6
Continuous
 62
     7
100
AcDbCircle
 10
381.0
 20
506.7499999999998
 30
0.0
 40
3.5
100
AcDbArc
 50
270.0
 51
90.0
  0
LINE
  5
14E
330
1E
100
AcDbEntity
  8
1
  6
Continuous
 62
     7
100
AcDbLine
 10
377.0
 20
510.25
 30
0.0
 11
380.999999
 21
510.25
 31
0.0
  0
LINE
  5
14F
330
1E
100
AcDbEntity
  8
1
  6
Continuous
 62
     7
100
AcDbLine
 10
377.0000009999998
 20
503.2499999999997
 30
0.0
 11
380.999999
 21
503.2499999999997
 31
0.0
  0
ARC
  5
150
330
1E
100
AcDbEntity
  8
1
  6
Continuous
 62
     7
100
AcDbCircle
 10
377.0
 20
485.25
 30
0.0
 40
3.5
100
AcDbArc
 50
90.0
 51
270.0
  0
ARC
  5
151
330
1E
100
AcDbEntity
  8
1
  6
Continuous
 62
     7
100
AcDbCircle
 10
381.0
 20
485.25
 30
0.0
 40
3.5
100
AcDbArc
 50
270.0
 51
90.0
  0
LINE
  5
152
330
1E
100
AcDbEntity
  8
1
  6
Continuous
 62
     7
100
AcDbLine
 10
377.0
 20
488.75
 30
0.0
 11
380.999999
 21
488.75
 31
0.0
  0
LINE
  5
153
330
1E
100
AcDbEntity
  8
1
  6
Continuous
 62
     7
100
AcDbLine
 10
377.0000009999998
 20
481.7499999999998
 30
0.0
 11
380.999999
 21
481.7499999999998
 31
0.0
  0
CIRCLE
  5
154
330
1E
100
AcDbEntity
  8
1
  6
Continuous
 62
     7
100
AcDbCircle
 10
523.0
 20
504.75
 30
0.0
 40
1.5
  0
CIRCLE
  5
155
330
1E
100
AcDbEntity
  8
1
  6
Continuous
 62
     7
100
AcDbCircle
 10
523.0
 20
487.25
 30
0.0
 40
1.5
  0
CIRCLE
  5
156
330
1E
100
AcDbEntity
  8
1
  6
Continuous
 62
     7
100
AcDbCircle
 10
459.0
 20
504.75
 30
0.0
 40
1.5
  0
CIRCLE
  5
157
330
1E
100
AcDbEntity
  8
1
  6
Continuous
 62
     7
100
AcDbCircle
 10
459.0
 20
487.25
 30
0.0
 40
1.5
  0
CIRCLE
  5
158
330
1E
100
AcDbEntity
  8
1
  6
Continuous
 62
     7
100
AcDbCircle
 10
363.0
 20
504.75
 30
0.0
 40
1.5
  0
CIRCLE
  5
159
330
1E
100
AcDbEntity
  8
1
  6
Continuous
 62
     7
100
AcDbCircle
 10
363.0
 20
487.25
 30
0.0
 40
1.5
  0
LINE
  5
15A
330
1E
100
AcDbEntity
  8
1
  6
Continuous
 62
     7
100
AcDbLine
 10
787.0
 20
1020.0
 30
0.0
 11
787.0
 21
690.0
 31
0.0
  0
LINE
  5
15B
330
1E
100
AcDbEntity
  8
1
  6
Continuous
 62
     7
100
AcDbLine
 10
787.0
 20
690.0
 30
0.0
 11
840.0
 21
690.0
 31
0.0
  0
LINE
  5
15C
330
1E
100
AcDbEntity
  8
1
  6
Continuous
 62
     7
100
AcDbLine
 10
840.0
 20
690.0
 30
0.0
 11
840.0
 21
1020.0
 31
0.0
  0
LINE
  5
15D
330
1E
100
AcDbEntity
  8
1
  6
Continuous
 62
     7
100
AcDbLine
 10
840.0
 20
1020.0
 30
0.0
 11
787.0
 21
1020.0
 31
0.0
  0
LINE
  5
15E
330
1E
100
AcDbEntity
  8
1
  6
Continuous
 62
     7
100
AcDbLine
 10
842.5
 20
950.0
 30
0.0
 11
847.4999999999999
 21
950.0
 31
0.0
  0
LINE
  5
15F
330
1E
100
AcDbEntity
  8
1
  6
Continuous
 62
     7
100
AcDbLine
 10
847.4999999999999
 20
950.0
 30
0.0
 11
847.4999999999999
 21
990.0
 31
0.0
  0
LINE
  5
160
330
1E
100
AcDbEntity
  8
1
  6
Continuous
 62
     7
100
AcDbLine
 10
847.4999999999999
 20
990.0
 30
0.0
 11
842.5
 21
990.0
 31
0.0
  0
LINE
  5
161
330
1E
100
AcDbEntity
  8
1
  6
Continuous
 62
     7
100
AcDbLine
 10
842.5
 20
990.0
 30
0.0
 11
842.5
 21
950.0
 31
0.0
  0
LINE
  5
162
330
1E
100
AcDbEntity
  8
1
  6
Continuous
 62
     7
100
AcDbLine
 10
847.4999999999999
 20
950.0
 30
0.0
 11
850.0
 21
952.5
 31
0.0
  0
LINE
  5
163
330
1E
100
AcDbEntity
  8
1
  6
Continuous
 62
     7
100
AcDbLine
 10
850.0
 20
952.5
 30
0.0
 11
850.0
 21
987.5
 31
0.0
  0
LINE
  5
164
330
1E
100
AcDbEntity
  8
1
  6
Continuous
 62
     7
100
AcDbLine
 10
850.0
 20
987.5
 30
0.0
 11
847.4999999999999
 21
990.0
 31
0.0
  0
LINE
  5
165
330
1E
100
AcDbEntity
  8
1
  6
Continuous
 62
     7
100
AcDbLine
 10
842.5
 20
950.0
 30
0.0
 11
840.0
 21
952.5
 31
0.0
  0
LINE
  5
166
330
1E
100
AcDbEntity
  8
1
  6
Continuous
 62
     7
100
AcDbLine
 10
840.0
 20
987.5
 30
0.0
 11
842.5
 21
990.0
 31
0.0
  0
LINE
  5
167
330
1E
100
AcDbEntity
  8
1
  6
Continuous
 62
     7
100
AcDbLine
 10
842.5
 20
700.0
 30
0.0
 11
847.4999999999999
 21
700.0
 31
0.0
  0
LINE
  5
168
330
1E
100
AcDbEntity
  8
1
  6
Continuous
 62
     7
100
AcDbLine
 10
847.4999999999999
 20
700.0
 30
0.0
 11
847.4999999999999
 21
740.0
 31
0.0
  0
LINE
  5
169
330
1E
100
AcDbEntity
  8
1
  6
Continuous
 62
     7
100
AcDbLine
 10
847.4999999999999
 20
740.0
 30
0.0
 11
842.5
 21
740.0
 31
0.0
  0
LINE
  5
16A
330
1E
100
AcDbEntity
  8
1
  6
Continuous
 62
     7
100
AcDbLine
 10
842.5
 20
740.0
 30
0.0
 11
842.5
 21
700.0
 31
0.0
  0
LINE
  5
16B
330
1E
100
AcDbEntity
  8
1
  6
Continuous
 62
     7
100
AcDbLine
 10
847.4999999999999
 20
700.0
 30
0.0
 11
850.0
 21
702.5
 31
0.0
  0
LINE
  5
16C
330
1E
100
AcDbEntity
  8
1
  6
Continuous
 62
     7
100
AcDbLine
 10
850.0
 20
702.5
 30
0.0
 11
850.0
 21
737.5
 31
0.0
  0
LINE
  5
16D
330
1E
100
AcDbEntity
  8
1
  6
Continuous
 62
     7
100
AcDbLine
 10
850.0
 20
737.5
 30
0.0
 11
847.4999999999999
 21
740.0
 31
0.0
  0
LINE
  5
16E
330
1E
100
AcDbEntity
  8
1
  6
Continuous
 62
     7
100
AcDbLine
 10
842.5
 20
700.0
 30
0.0
 11
840.0
 21
702.5
 31
0.0
  0
LINE
  5
16F
330
1E
100
AcDbEntity
  8
1
  6
Continuous
 62
     7
100
AcDbLine
 10
840.0
 20
737.5
 30
0.0
 11
842.5
 21
740.0
 31
0.0
  0
ARC
  5
170
330
1E
100
AcDbEntity
  8
1
  6
Continuous
 62
     7
100
AcDbCircle
 10
807.2499999999999
 20
798.7500019999997
 30
0.0
 40
1.25
100
AcDbArc
 50
90.0
 51
270.0
  0
ARC
  5
171
330
1E
100
AcDbEntity
  8
1
  6
Continuous
 62
     7
100
AcDbCircle
 10
819.7499999999999
 20
798.7500019999997
 30
0.0
 40
1.25
100
AcDbArc
 50
270.0
 51
90.0
  0
LINE
  5
172
330
1E
100
AcDbEntity
  8
1
  6
Continuous
 62
     7
100
AcDbLine
 10
807.249999
 20
800.0000019999996
 30
0.0
 11
819.749999
 21
800.0000019999996
 31
0.0
  0
LINE
  5
173
330
1E
100
AcDbEntity
  8
1
  6
Continuous
 62
     7
100
AcDbLine
 10
807.2499999999999
 20
797.500002
 30
0.0
 11
819.7499999999999
 21
797.500002
 31
0.0
  0
ARC
  5
174
330
1E
100
AcDbEntity
  8
1
  6
Continuous
 62
     7
100
AcDbCircle
 10
807.2499999999999
 20
791.250002
 30
0.0
 40
1.25
100
AcDbArc
 50
90.0
 51
270.0
  0
ARC
  5
175
330
1E
100
AcDbEntity
  8
1
  6
Continuous
 62
     7
100
AcDbCircle
 10
819.7499999999999
 20
791.250002
 30
0.0
 40
1.25
100
AcDbArc
 50
270.0
 51
90.0
  0
LINE
  5
176
330
1E
100
AcDbEntity
  8
1
  6
Continuous
 62
     7
100
AcDbLine
 10
807.249999
 20
792.5000019999997
 30
0.0
 11
819.749999
 21
792.5000019999997
 31
0.0
  0
LINE
  5
177
330
1E
100
AcDbEntity
  8
1
  6
Continuous
 62
     7
100
AcDbLine
 10
807.2499999999999
 20
790.000002
 30
0.0
 11
819.7499999999999
 21
790.000002
 31
0.0
  0
ARC
  5
178
330
1E
100
AcDbEntity
  8
1
  6
Continuous
 62
     7
100
AcDbCircle
 10
807.2499999999999
 20
783.750002
 30
0.0
 40
1.25
100
AcDbArc
 50
90.0
 51
270.0
  0
ARC
  5
179
330
1E
100
AcDbEntity
  8
1
  6
Continuous
 62
     7
100
AcDbCircle
 10
819.7499999999999
 20
783.750002
 30
0.0
 40
1.25
100
AcDbArc
 50
270.0
 51
90.0
  0
LINE
  5
17A
330
1E
100
AcDbEntity
  8
1
  6
Continuous
 62
     7
100
AcDbLine
 10
807.249999
 20
785.000002
 30
0.0
 11
819.749999
 21
785.000002
 31
0.0
  0
LINE
  5
17B
330
1E
100
AcDbEntity
  8
1
  6
Continuous
 62
     7
100
AcDbLine
 10
807.2499999999999
 20
782.500002
 30
0.0
 11
819.7499999999999
 21
782.500002
 31
0.0
  0
ARC
  5
17C
330
1E
100
AcDbEntity
  8
1
  6
Continuous
 62
     7
100
AcDbCircle
 10
807.2499999999999
 20
776.250002
 30
0.0
 40
1.25
100
AcDbArc
 50
90.0
 51
270.0
  0
ARC
  5
17D
330
1E
100
AcDbEntity
  8
1
  6
Continuous
 62
     7
100
AcDbCircle
 10
819.7499999999999
 20
776.250002
 30
0.0
 40
1.25
100
AcDbArc
 50
270.0
 51
90.0
  0
LINE
  5
17E
330
1E
100
AcDbEntity
  8
1
  6
Continuous
 62
     7
100
AcDbLine
 10
807.249999
 20
777.500002
 30
0.0
 11
819.749999
 21
777.500002
 31
0.0
  0
LINE
  5
17F
330
1E
100
AcDbEntity
  8
1
  6
Continuous
 62
     7
100
AcDbLine
 10
807.2499999999999
 20
775.0000019999996
 30
0.0
 11
819.7499999999999
 21
775.0000019999996
 31
0.0
  0
ARC
  5
180
330
1E
100
AcDbEntity
  8
1
  6
Continuous
 62
     7
100
AcDbCircle
 10
807.2499999999999
 20
768.7500019999996
 30
0.0
 40
1.25
100
AcDbArc
 50
90.0
 51
270.0
  0
ARC
  5
181
330
1E
100
AcDbEntity
  8
1
  6
Continuous
 62
     7
100
AcDbCircle
 10
819.7499999999999
 20
768.7500019999996
 30
0.0
 40
1.25
100
AcDbArc
 50
270.0
 51
90.0
  0
LINE
  5
182
330
1E
100
AcDbEntity
  8
1
  6
Continuous
 62
     7
100
AcDbLine
 10
807.249999
 20
770.000002
 30
0.0
 11
819.749999
 21
770.000002
 31
0.0
  0
LINE
  5
183
330
1E
100
AcDbEntity
  8
1
  6
Continuous
 62
     7
100
AcDbLine
 10
807.2499999999999
 20
767.5000019999997
 30
0.0
 11
819.7499999999999
 21
767.5000019999997
 31
0.0
  0
ARC
  5
184
330
1E
100
AcDbEntity
  8
1
  6
Continuous
 62
     7
100
AcDbCircle
 10
807.2499999999999
 20
761.2499999999997
 30
0.0
 40
1.25
100
AcDbArc
 50
90.0
 51
270.0
  0
ARC
  5
185
330
1E
100
AcDbEntity
  8
1
  6
Continuous
 62
     7
100
AcDbCircle
 10
819.7499999999999
 20
761.2499999999997
 30
0.0
 40
1.25
100
AcDbArc
 50
270.0
 51
90.0
  0
LINE
  5
186
330
1E
100
AcDbEntity
  8
1
  6
Continuous
 62
     7
100
AcDbLine
 10
807.249999
 20
762.5
 30
0.0
 11
819.749999
 21
762.5
 31
0.0
  0
LINE
  5
187
330
1E
100
AcDbEntity
  8
1
  6
Continuous
 62
     7
100
AcDbLine
 10
807.2499999999999
 20
760.0
 30
0.0
 11
819.7499999999999
 21
760.0
 31
0.0
  0
ARC
  5
188
330
1E
100
AcDbEntity
  8
1
  6
Continuous
 62
     7
100
AcDbCircle
 10
807.2499999999999
 20
753.75
 30
0.0
 40
1.25
100
AcDbArc
 50
90.0
 51
270.0
  0
ARC
  5
189
330
1E
100
AcDbEntity
  8
1
  6
Continuous
 62
     7
100
AcDbCircle
 10
819.7499999999999
 20
753.75
 30
0.0
 40
1.25
100
AcDbArc
 50
270.0
 51
90.0
  0
LINE
  5
18A
330
1E
100
AcDbEntity
  8
1
  6
Continuous
 62
     7
100
AcDbLine
 10
807.249999
 20
755.0
 30
0.0
 11
819.749999
 21
755.0
 31
0.0
  0
LINE
  5
18B
330
1E
100
AcDbEntity
  8
1
  6
Continuous
 62
     7
100
AcDbLine
 10
807.2499999999999
 20
752.5
 30
0.0
 11
819.7499999999999
 21
752.5
 31
0.0
  0
ARC
  5
18C
330
1E
100
AcDbEntity
  8
1
  6
Continuous
 62
     7
100
AcDbCircle
 10
807.2499999999999
 20
746.25
 30
0.0
 40
1.25
100
AcDbArc
 50
90.0
 51
270.0
  0
ARC
  5
18D
330
1E
100
AcDbEntity
  8
1
  6
Continuous
 62
     7
100
AcDbCircle
 10
819.7499999999999
 20
746.25
 30
0.0
 40
1.25
100
AcDbArc
 50
270.0
 51
90.0
  0
LINE
  5
18E
330
1E
100
AcDbEntity
  8
1
  6
Continuous
 62
     7
100
AcDbLine
 10
807.249999
 20
747.5
 30
0.0
 11
819.749999
 21
747.5
 31
0.0
  0
LINE
  5
18F
330
1E
100
AcDbEntity
  8
1
  6
Continuous
 62
     7
100
AcDbLine
 10
807.2499999999999
 20
745.0
 30
0.0
 11
819.7499999999999
 21
745.0
 31
0.0
  0
ARC
  5
190
330
1E
100
AcDbEntity
  8
1
  6
Continuous
 62
     7
100
AcDbCircle
 10
807.2499999999999
 20
738.75
 30
0.0
 40
1.25
100
AcDbArc
 50
90.0
 51
270.0
  0
ARC
  5
191
330
1E
100
AcDbEntity
  8
1
  6
Continuous
 62
     7
100
AcDbCircle
 10
819.7499999999999
 20
738.75
 30
0.0
 40
1.25
100
AcDbArc
 50
270.0
 51
90.0
  0
LINE
  5
192
330
1E
100
AcDbEntity
  8
1
  6
Continuous
 62
     7
100
AcDbLine
 10
807.249999
 20
740.0
 30
0.0
 11
819.749999
 21
740.0
 31
0.0
  0
LINE
  5
193
330
1E
100
AcDbEntity
  8
1
  6
Continuous
 62
     7
100
AcDbLine
 10
807.2499999999999
 20
737.5
 30
0.0
 11
819.7499999999999
 21
737.5
 31
0.0
  0
ARC
  5
194
330
1E
100
AcDbEntity
  8
1
  6
Continuous
 62
     7
100
AcDbCircle
 10
807.2499999999999
 20
731.25
 30
0.0
 40
1.25
100
AcDbArc
 50
90.0
 51
270.0
  0
ARC
  5
195
330
1E
100
AcDbEntity
  8
1
  6
Continuous
 62
     7
100
AcDbCircle
 10
819.7499999999999
 20
731.25
 30
0.0
 40
1.25
100
AcDbArc
 50
270.0
 51
90.0
  0
LINE
  5
196
330
1E
100
AcDbEntity
  8
1
  6
Continuous
 62
     7
100
AcDbLine
 10
807.249999
 20
732.5
 30
0.0
 11
819.749999
 21
732.5
 31
0.0
  0
LINE
  5
197
330
1E
100
AcDbEntity
  8
1
  6
Continuous
 62
     7
100
AcDbLine
 10
807.2499999999999
 20
730.0
 30
0.0
 11
819.7499999999999
 21
730.0
 31
0.0
  0
ARC
  5
198
330
1E
100
AcDbEntity
  8
1
  6
Continuous
 62
     7
100
AcDbCircle
 10
807.2499999999999
 20
858.7500039999996
 30
0.0
 40
1.25
100
AcDbArc
 50
90.0
 51
270.0
  0
ARC
  5
199
330
1E
100
AcDbEntity
  8
1
  6
Continuous
 62
     7
100
AcDbCircle
 10
819.7499999999999
 20
858.7500039999996
 30
0.0
 40
1.25
100
AcDbArc
 50
270.0
 51
90.0
  0
LINE
  5
19A
330
1E
100
AcDbEntity
  8
1
  6
Continuous
 62
     7
100
AcDbLine
 10
807.249999
 20
860.0000039999999
 30
0.0
 11
819.749999
 21
860.0000039999999
 31
0.0
  0
LINE
  5
19B
330
1E
100
AcDbEntity
  8
1
  6
Continuous
 62
     7
100
AcDbLine
 10
807.2499999999999
 20
857.5000039999999
 30
0.0
 11
819.7499999999999
 21
857.5000039999999
 31
0.0
  0
ARC
  5
19C
330
1E
100
AcDbEntity
  8
1
  6
Continuous
 62
     7
100
AcDbCircle
 10
807.2499999999999
 20
851.2500039999999
 30
0.0
 40
1.25
100
AcDbArc
 50
90.0
 51
270.0
  0
ARC
  5
19D
330
1E
100
AcDbEntity
  8
1
  6
Continuous
 62
     7
100
AcDbCircle
 10
819.7499999999999
 20
851.2500039999999
 30
0.0
 40
1.25
100
AcDbArc
 50
270.0
 51
90.0
  0
LINE
  5
19E
330
1E
100
AcDbEntity
  8
1
  6
Continuous
 62
     7
100
AcDbLine
 10
807.249999
 20
852.5000039999996
 30
0.0
 11
819.749999
 21
852.5000039999996
 31
0.0
  0
LINE
  5
19F
330
1E
100
AcDbEntity
  8
1
  6
Continuous
 62
     7
100
AcDbLine
 10
807.2499999999999
 20
850.0000039999999
 30
0.0
 11
819.7499999999999
 21
850.0000039999999
 31
0.0
  0
ARC
  5
1A0
330
1E
100
AcDbEntity
  8
1
  6
Continuous
 62
     7
100
AcDbCircle
 10
807.2499999999999
 20
843.7500039999999
 30
0.0
 40
1.25
100
AcDbArc
 50
90.0
 51
270.0
  0
ARC
  5
1A1
330
1E
100
AcDbEntity
  8
1
  6
Continuous
 62
     7
100
AcDbCircle
 10
819.7499999999999
 20
843.7500039999999
 30
0.0
 40
1.25
100
AcDbArc
 50
270.0
 51
90.0
  0
LINE
  5
1A2
330
1E
100
AcDbEntity
  8
1
  6
Continuous
 62
     7
100
AcDbLine
 10
807.249999
 20
845.0000039999999
 30
0.0
 11
819.749999
 21
845.0000039999999
 31
0.0
  0
LINE
  5
1A3
330
1E
100
AcDbEntity
  8
1
  6
Continuous
 62
     7
100
AcDbLine
 10
807.2499999999999
 20
842.5000039999996
 30
0.0
 11
819.7499999999999
 21
842.5000039999996
 31
0.0
  0
ARC
  5
1A4
330
1E
100
AcDbEntity
  8
1
  6
Continuous
 62
     7
100
AcDbCircle
 10
807.2499999999999
 20
836.250004
 30
0.0
 40
1.25
100
AcDbArc
 50
90.0
 51
270.0
  0
ARC
  5
1A5
330
1E
100
AcDbEntity
  8
1
  6
Continuous
 62
     7
100
AcDbCircle
 10
819.7499999999999
 20
836.250004
 30
0.0
 40
1.25
100
AcDbArc
 50
270.0
 51
90.0
  0
LINE
  5
1A6
330
1E
100
AcDbEntity
  8
1
  6
Continuous
 62
     7
100
AcDbLine
 10
807.249999
 20
837.5000039999999
 30
0.0
 11
819.749999
 21
837.5000039999999
 31
0.0
  0
LINE
  5
1A7
330
1E
100
AcDbEntity
  8
1
  6
Continuous
 62
     7
100
AcDbLine
 10
807.2499999999999
 20
835.0000039999999
 30
0.0
 11
819.7499999999999
 21
835.0000039999999
 31
0.0
  0
ARC
  5
1A8
330
1E
100
AcDbEntity
  8
1
  6
Continuous
 62
     7
100
AcDbCircle
 10
807.2499999999999
 20
828.7500039999999
 30
0.0
 40
1.25
100
AcDbArc
 50
90.0
 51
270.0
  0
ARC
  5
1A9
330
1E
100
AcDbEntity
  8
1
  6
Continuous
 62
     7
100
AcDbCircle
 10
819.7499999999999
 20
828.7500039999999
 30
0.0
 40
1.25
100
AcDbArc
 50
270.0
 51
90.0
  0
LINE
  5
1AA
330
1E
100
AcDbEntity
  8
1
  6
Continuous
 62
     7
100
AcDbLine
 10
807.249999
 20
830.000004
 30
0.0
 11
819.749999
 21
830.000004
 31
0.0
  0
LINE
  5
1AB
330
1E
100
AcDbEntity
  8
1
  6
Continuous
 62
     7
100
AcDbLine
 10
807.2499999999999
 20
827.500004
 30
0.0
 11
819.7499999999999
 21
827.500004
 31
0.0
  0
ARC
  5
1AC
330
1E
100
AcDbEntity
  8
1
  6
Continuous
 62
     7
100
AcDbCircle
 10
807.2499999999999
 20
821.250002
 30
0.0
 40
1.25
100
AcDbArc
 50
90.0
 51
270.0
  0
ARC
  5
1AD
330
1E
100
AcDbEntity
  8
1
  6
Continuous
 62
     7
100
AcDbCircle
 10
819.7499999999999
 20
821.250002
 30
0.0
 40
1.25
100
AcDbArc
 50
270.0
 51
90.0
  0
LINE
  5
1AE
330
1E
100
AcDbEntity
  8
1
  6
Continuous
 62
     7
100
AcDbLine
 10
807.249999
 20
822.5000019999999
 30
0.0
 11
819.749999
 21
822.5000019999999
 31
0.0
  0
LINE
  5
1AF
330
1E
100
AcDbEntity
  8
1
  6
Continuous
 62
     7
100
AcDbLine
 10
807.2499999999999
 20
820.000002
 30
0.0
 11
819.7499999999999
 21
820.000002
 31
0.0
  0
ARC
  5
1B0
330
1E
100
AcDbEntity
  8
1
  6
Continuous
 62
     7
100
AcDbCircle
 10
807.2499999999999
 20
813.750002
 30
0.0
 40
1.25
100
AcDbArc
 50
90.0
 51
270.0
  0
ARC
  5
1B1
330
1E
100
AcDbEntity
  8
1
  6
Continuous
 62
     7
100
AcDbCircle
 10
819.7499999999999
 20
813.750002
 30
0.0
 40
1.25
100
AcDbArc
 50
270.0
 51
90.0
  0
LINE
  5
1B2
330
1E
100
AcDbEntity
  8
1
  6
Continuous
 62
     7
100
AcDbLine
 10
807.249999
 20
815.000002
 30
0.0
 11
819.749999
 21
815.000002
 31
0.0
  0
LINE
  5
1B3
330
1E
100
AcDbEntity
  8
1
  6
Continuous
 62
     7
100
AcDbLine
 10
807.2499999999999
 20
812.5000019999996
 30
0.0
 11
819.7499999999999
 21
812.5000019999996
 31
0.0
  0
ARC
  5
1B4
330
1E
100
AcDbEntity
  8
1
  6
Continuous
 62
     7
100
AcDbCircle
 10
807.2499999999999
 20
806.2500019999996
 30
0.0
 40
1.25
100
AcDbArc
 50
90.0
 51
270.0
  0
ARC
  5
1B5
330
1E
100
AcDbEntity
  8
1
  6
Continuous
 62
     7
100
AcDbCircle
 10
819.7499999999999
 20
806.2500019999996
 30
0.0
 40
1.25
100
AcDbArc
 50
270.0
 51
90.0
  0
LINE
  5
1B6
330
1E
100
AcDbEntity
  8
1
  6
Continuous
 62
     7
100
AcDbLine
 10
807.249999
 20
807.500002
 30
0.0
 11
819.749999
 21
807.500002
 31
0.0
  0
LINE
  5
1B7
330
1E
100
AcDbEntity
  8
1
  6
Continuous
 62
     7
100
AcDbLine
 10
807.2499999999999
 20
805.000002
 30
0.0
 11
819.7499999999999
 21
805.000002
 31
0.0
  0
CIRCLE
  5
1B8
330
1E
100
AcDbEntity
  8
1
  6
Continuous
 62
     7
100
AcDbCircle
 10
829.0
 20
720.0
 30
0.0
 40
4.5
  0
LINE
  5
1B9
330
1E
100
AcDbEntity
  8
1
  6
Continuous
 62
     7
100
AcDbLine
 10
827.5
 20
720.0
 30
0.0
 11
830.4999999999999
 21
720.0
 31
0.0
  0
LINE
  5
1BA
330
1E
100
AcDbEntity
  8
1
  6
Continuous
 62
     7
100
AcDbLine
 10
829.0
 20
721.4999999999996
 30
0.0
 11
829.0
 21
718.5
 31
0.0
  0
CIRCLE
  5
1BB
330
1E
100
AcDbEntity
  8
1
  6
Continuous
 62
     7
100
AcDbCircle
 10
829.0
 20
959.0
 30
0.0
 40
4.5
  0
LINE
  5
1BC
330
1E
100
AcDbEntity
  8
1
  6
Continuous
 62
     7
100
AcDbLine
 10
827.5
 20
959.0
 30
0.0
 11
830.4999999999999
 21
959.0
 31
0.0
  0
LINE
  5
1BD
330
1E
100
AcDbEntity
  8
1
  6
Continuous
 62
     7
100
AcDbLine
 10
829.0
 20
960.5
 30
0.0
 11
829.0
 21
957.5000000000001
 31
0.0
  0
LINE
  5
1BE
330
1E
100
AcDbEntity
  8
1
  6
Continuous
 62
     7
100
AcDbLine
 10
836.0
 20
668.5
 30
0.0
 11
836.0
 21
690.0
 31
0.0
  0
LINE
  5
1BF
330
1E
100
AcDbEntity
  8
1
  6
Continuous
 62
     7
100
AcDbLine
 10
791.0
 20
668.5
 30
0.0
 11
791.0
 21
690.0
 31
0.0
  0
LINE
  5
1C0
330
1E
100
AcDbEntity
  8
1
  6
Continuous
 62
     7
100
AcDbLine
 10
791.0
 20
669.5
 30
0.0
 11
789.5
 21
669.5
 31
0.0
  0
LINE
  5
1C1
330
1E
100
AcDbEntity
  8
1
  6
Continuous
 62
     7
100
AcDbLine
 10
787.0
 20
672.0
 30
0.0
 11
787.0
 21
690.0
 31
0.0
  0
ARC
  5
1C2
330
1E
100
AcDbEntity
  8
1
  6
Continuous
 62
     7
100
AcDbCircle
 10
789.5
 20
672.0
 30
0.0
 40
2.5
100
AcDbArc
 50
180.0
 51
270.0
  0
LINE
  5
1C3
330
1E
100
AcDbEntity
  8
1
  6
Continuous
 62
     7
100
AcDbLine
 10
836.0
 20
669.5
 30
0.0
 11
837.5
 21
669.5
 31
0.0
  0
LINE
  5
1C4
330
1E
100
AcDbEntity
  8
1
  6
Continuous
 62
     7
100
AcDbLine
 10
840.0
 20
672.0
 30
0.0
 11
840.0
 21
690.0
 31
0.0
  0
ARC
  5
1C5
330
1E
100
AcDbEntity
  8
1
  6
Continuous
 62
     7
100
AcDbCircle
 10
837.5
 20
672.0
 30
0.0
 40
2.5
100
AcDbArc
 50
270.0
 51
0.0
  0
LINE
  5
1C6
330
1E
100
AcDbEntity
  8
1
  6
Continuous
 62
     7
100
AcDbLine
 10
183.0
 20
1020.0
 30
0.0
 11
183.0
 21
690.0
 31
0.0
  0
LINE
  5
1C7
330
1E
100
AcDbEntity
  8
1
  6
Continuous
 62
     7
100
AcDbLine
 10
183.0
 20
690.0
 30
0.0
 11
617.0
 21
690.0
 31
0.0
  0
LINE
  5
1C8
330
1E
100
AcDbEntity
  8
1
  6
Continuous
 62
     7
100
AcDbLine
 10
617.0
 20
690.0
 30
0.0
 11
617.0
 21
1020.0
 31
0.0
  0
LINE
  5
1C9
330
1E
100
AcDbEntity
  8
1
  6
Continuous
 62
     7
100
AcDbLine
 10
617.0
 20
1020.0
 30
0.0
 11
183.0
 21
1020.0
 31
0.0
  0
LINE
  5
1CA
330
1E
100
AcDbEntity
  8
1
  6
Continuous
 62
     7
100
AcDbLine
 10
183.0
 20
677.5
 30
0.0
 11
183.0
 21
690.0
 31
0.0
  0
ARC
  5
1CB
330
1E
100
AcDbEntity
  8
1
  6
Continuous
 62
     7
100
AcDbCircle
 10
191.0
 20
677.5
 30
0.0
 40
8.0
100
AcDbArc
 50
180.0
 51
270.0
  0
LINE
  5
1CC
330
1E
100
AcDbEntity
  8
1
  6
Continuous
 62
     7
100
AcDbLine
 10
617.0
 20
690.0
 30
0.0
 11
617.0
 21
677.5
 31
0.0
  0
LINE
  5
1CD
330
1E
100
AcDbEntity
  8
1
  6
Continuous
 62
     7
100
AcDbLine
 10
609.0
 20
669.5
 30
0.0
 11
191.0
 21
669.5
 31
0.0
  0
ARC
  5
1CE
330
1E
100
AcDbEntity
  8
1
  6
Continuous
 62
     7
100
AcDbCircle
 10
609.0
 20
677.5
 30
0.0
 40
8.0
100
AcDbArc
 50
270.0
 51
0.0
  0
LINE
  5
1CF
330
1E
100
AcDbEntity
  8
1
  6
Continuous
 62
     7
100
AcDbLine
 10
617.0
 20
690.0
 30
0.0
 11
618.0
 21
690.0
 31
0.0
  0
LINE
  5
1D0
330
1E
100
AcDbEntity
  8
1
  6
Continuous
 62
     7
100
AcDbLine
 10
811.234428
 20
667.0
 30
0.0
 11
811.234428
 21
667.9753019999997
 31
0.0
  0
LINE
  5
1D1
330
1E
100
AcDbEntity
  8
1
  6
Continuous
 62
     7
100
AcDbLine
 10
811.234428
 20
667.9753019999997
 30
0.0
 11
815.734428
 21
667.9753019999997
 31
0.0
  0
LINE
  5
1D2
330
1E
100
AcDbEntity
  8
1
  6
Continuous
 62
     7
100
AcDbLine
 10
815.734428
 20
667.9753019999997
 30
0.0
 11
815.734428
 21
667.0
 31
0.0
  0
ARC
  5
1D3
330
1E
100
AcDbEntity
  8
1
  6
Continuous
 62
     7
100
AcDbCircle
 10
813.4999999999999
 20
836.4999989999999
 30
0.0
 40
169.5
100
AcDbArc
 50
262.371853
 51
269.2341499999999
  0
ARC
  5
1D4
330
1E
100
AcDbEntity
  8
1
  6
Continuous
 62
     7
100
AcDbCircle
 10
813.4999999999999
 20
836.4999989999999
 30
0.0
 40
169.5
100
AcDbArc
 50
270.7553219999999
 51
277.628147
  0
LINE
  5
1D5
330
1E
100
AcDbEntity
  8
1
  6
Continuous
 62
     7
100
AcDbLine
 10
802.5
 20
667.3573079999997
 30
0.0
 11
802.5
 21
690.0
 31
0.0
  0
LINE
  5
1D6
330
1E
100
AcDbEntity
  8
1
  6
Continuous
 62
     7
100
AcDbLine
 10
824.5
 20
667.3573079999997
 30
0.0
 11
824.5
 21
690.0
 31
0.0
  0
LINE
  5
1D7
330
1E
100
AcDbEntity
  8
1
  6
Continuous
 62
     7
100
AcDbLine
 10
803.5
 20
690.0
 30
0.0
 11
803.5
 21
673.965046
 31
0.0
  0
LINE
  5
1D8
330
1E
100
AcDbEntity
  8
1
  6
Continuous
 62
     7
100
AcDbLine
 10
823.4999999999999
 20
673.965046
 30
0.0
 11
823.4999999999999
 21
690.0
 31
0.0
  0
ARC
  5
1D9
330
1E
100
AcDbEntity
  8
1
  6
Continuous
 62
     7
100
AcDbCircle
 10
813.4999999999999
 20
689.141969
 30
0.0
 40
18.166667
100
AcDbArc
 50
236.601512
 51
303.3984879999998
  0
LINE
  5
1DA
330
1E
100
AcDbEntity
  8
1
  6
Continuous
 62
     7
100
AcDbLine
 10
813.4999999999999
 20
667.9753019999997
 30
0.0
 11
813.4999999999999
 21
670.9753019999997
 31
0.0
  0
LINE
  5
1DB
330
1E
100
AcDbEntity
  8
1
  6
Continuous
 62
     7
100
AcDbLine
 10
618.0
 20
690.0
 30
0.0
 11
618.0
 21
667.0151409999999
 31
0.0
  0
LINE
  5
1DC
330
1E
100
AcDbEntity
  8
1
  6
Continuous
 62
     7
100
AcDbLine
 10
618.0
 20
668.5
 30
0.0
 11
182.0
 21
668.5
 31
0.0
  0
LINE
  5
1DD
330
1E
100
AcDbEntity
  8
1
  6
Continuous
 62
     7
100
AcDbLine
 10
183.0
 20
690.0
 30
0.0
 11
182.0
 21
690.0
 31
0.0
  0
LINE
  5
1DE
330
1E
100
AcDbEntity
  8
1
  6
Continuous
 62
     7
100
AcDbLine
 10
182.0
 20
690.0
 30
0.0
 11
182.0
 21
667.0151409999999
 31
0.0
  0
LINE
  5
1DF
330
1E
100
AcDbEntity
  8
1
  6
Continuous
 62
     7
100
AcDbLine
 10
503.0
 20
667.4999999999998
 30
0.0
 11
511.0
 21
667.4999999999998
 31
0.0
  0
LINE
  5
1E0
330
1E
100
AcDbEntity
  8
1
  6
Continuous
 62
     7
100
AcDbLine
 10
503.0
 20
667.126136
 30
0.0
 11
503.0
 21
667.4999999999998
 31
0.0
  0
ARC
  5
1E1
330
1E
100
AcDbEntity
  8
1
  6
Continuous
 62
     7
100
AcDbCircle
 10
504.0
 20
667.126136
 30
0.0
 40
1.0
100
AcDbArc
 50
180.0
 51
246.4218219999998
  0
ARC
  5
1E2
330
1E
100
AcDbEntity
  8
1
  6
Continuous
 62
     7
100
AcDbCircle
 10
507.0
 20
674.0
 30
0.0
 40
8.5
100
AcDbArc
 50
246.4218219999998
 51
293.5781779999998
  0
LINE
  5
1E3
330
1E
100
AcDbEntity
  8
1
  6
Continuous
 62
     7
100
AcDbLine
 10
511.0
 20
667.126136
 30
0.0
 11
511.0
 21
667.4999999999998
 31
0.0
  0
ARC
  5
1E4
330
1E
100
AcDbEntity
  8
1
  6
Continuous
 62
     7
100
AcDbCircle
 10
510.0
 20
667.126136
 30
0.0
 40
1.0
100
AcDbArc
 50
293.5781779999998
 51
0.0
  0
LINE
  5
1E5
330
1E
100
AcDbEntity
  8
1
  6
Continuous
 62
     7
100
AcDbLine
 10
487.0
 20
667.4999999999998
 30
0.0
 11
495.0
 21
667.4999999999998
 31
0.0
  0
LINE
  5
1E6
330
1E
100
AcDbEntity
  8
1
  6
Continuous
 62
     7
100
AcDbLine
 10
487.0
 20
667.126136
 30
0.0
 11
487.0
 21
667.4999999999998
 31
0.0
  0
ARC
  5
1E7
330
1E
100
AcDbEntity
  8
1
  6
Continuous
 62
     7
100
AcDbCircle
 10
488.0
 20
667.126136
 30
0.0
 40
1.0
100
AcDbArc
 50
180.0
 51
246.4218219999998
  0
ARC
  5
1E8
330
1E
100
AcDbEntity
  8
1
  6
Continuous
 62
     7
100
AcDbCircle
 10
491.0
 20
674.0
 30
0.0
 40
8.5
100
AcDbArc
 50
246.4218219999998
 51
293.5781779999998
  0
LINE
  5
1E9
330
1E
100
AcDbEntity
  8
1
  6
Continuous
 62
     7
100
AcDbLine
 10
495.0
 20
667.126136
 30
0.0
 11
495.0
 21
667.4999999999998
 31
0.0
  0
ARC
  5
1EA
330
1E
100
AcDbEntity
  8
1
  6
Continuous
 62
     7
100
AcDbCircle
 10
494.0
 20
667.126136
 30
0.0
 40
1.0
100
AcDbArc
 50
293.5781779999998
 51
0.0
  0
LINE
  5
1EB
330
1E
100
AcDbEntity
  8
1
  6
Continuous
 62
     7
100
AcDbLine
 10
471.0
 20
667.4999999999998
 30
0.0
 11
479.0
 21
667.4999999999998
 31
0.0
  0
LINE
  5
1EC
330
1E
100
AcDbEntity
  8
1
  6
Continuous
 62
     7
100
AcDbLine
 10
471.0
 20
667.126136
 30
0.0
 11
471.0
 21
667.4999999999998
 31
0.0
  0
ARC
  5
1ED
330
1E
100
AcDbEntity
  8
1
  6
Continuous
 62
     7
100
AcDbCircle
 10
472.0
 20
667.126136
 30
0.0
 40
1.0
100
AcDbArc
 50
180.0
 51
246.4218219999998
  0
ARC
  5
1EE
330
1E
100
AcDbEntity
  8
1
  6
Continuous
 62
     7
100
AcDbCircle
 10
475.0
 20
674.0
 30
0.0
 40
8.5
100
AcDbArc
 50
246.4218219999998
 51
293.5781779999998
  0
LINE
  5
1EF
330
1E
100
AcDbEntity
  8
1
  6
Continuous
 62
     7
100
AcDbLine
 10
479.0
 20
667.126136
 30
0.0
 11
479.0
 21
667.4999999999998
 31
0.0
  0
ARC
  5
1F0
330
1E
100
AcDbEntity
  8
1
  6
Continuous
 62
     7
100
AcDbCircle
 10
478.0
 20
667.126136
 30
0.0
 40
1.0
100
AcDbArc
 50
293.5781779999998
 51
0.0
  0
LINE
  5
1F1
330
1E
100
AcDbEntity
  8
1
  6
Continuous
 62
     7
100
AcDbLine
 10
437.5
 20
667.4999999999998
 30
0.0
 11
448.5
 21
667.4999999999998
 31
0.0
  0
LINE
  5
1F2
330
1E
100
AcDbEntity
  8
1
  6
Continuous
 62
     7
100
AcDbLine
 10
437.5
 20
667.209519
 30
0.0
 11
437.5
 21
667.4999999999998
 31
0.0
  0
ARC
  5
1F3
330
1E
100
AcDbEntity
  8
1
  6
Continuous
 62
     7
100
AcDbCircle
 10
438.4999999999998
 20
667.209519
 30
0.0
 40
1.0
100
AcDbArc
 50
180.0
 51
252.0797869999999
  0
ARC
  5
1F4
330
1E
100
AcDbEntity
  8
1
  6
Continuous
 62
     7
100
AcDbCircle
 10
443.0
 20
681.125
 30
0.0
 40
15.625
100
AcDbArc
 50
252.0797869999999
 51
287.9202129999999
  0
LINE
  5
1F5
330
1E
100
AcDbEntity
  8
1
  6
Continuous
 62
     7
100
AcDbLine
 10
448.5
 20
667.209519
 30
0.0
 11
448.5
 21
667.4999999999998
 31
0.0
  0
ARC
  5
1F6
330
1E
100
AcDbEntity
  8
1
  6
Continuous
 62
     7
100
AcDbCircle
 10
447.5
 20
667.209519
 30
0.0
 40
1.0
100
AcDbArc
 50
287.9202129999999
 51
0.0
  0
LINE
  5
1F7
330
1E
100
AcDbEntity
  8
1
  6
Continuous
 62
     7
100
AcDbLine
 10
405.4999999999997
 20
667.4999999999998
 30
0.0
 11
416.5
 21
667.4999999999998
 31
0.0
  0
LINE
  5
1F8
330
1E
100
AcDbEntity
  8
1
  6
Continuous
 62
     7
100
AcDbLine
 10
405.4999999999997
 20
667.209519
 30
0.0
 11
405.4999999999997
 21
667.4999999999998
 31
0.0
  0
ARC
  5
1F9
330
1E
100
AcDbEntity
  8
1
  6
Continuous
 62
     7
100
AcDbCircle
 10
406.5
 20
667.209519
 30
0.0
 40
1.0
100
AcDbArc
 50
180.0
 51
252.0797869999999
  0
ARC
  5
1FA
330
1E
100
AcDbEntity
  8
1
  6
Continuous
 62
     7
100
AcDbCircle
 10
411.0
 20
681.125
 30
0.0
 40
15.625
100
AcDbArc
 50
252.0797869999999
 51
287.9202129999999
  0
LINE
  5
1FB
330
1E
100
AcDbEntity
  8
1
  6
Continuous
 62
     7
100
AcDbLine
 10
416.5
 20
667.209519
 30
0.0
 11
416.5
 21
667.4999999999998
 31
0.0
  0
ARC
  5
1FC
330
1E
100
AcDbEntity
  8
1
  6
Continuous
 62
     7
100
AcDbCircle
 10
415.5
 20
667.209519
 30
0.0
 40
1.0
100
AcDbArc
 50
287.9202129999999
 51
0.0
  0
LINE
  5
1FD
330
1E
100
AcDbEntity
  8
1
  6
Continuous
 62
     7
100
AcDbLine
 10
389.4999999999998
 20
667.4999999999998
 30
0.0
 11
400.4999999999998
 21
667.4999999999998
 31
0.0
  0
LINE
  5
1FE
330
1E
100
AcDbEntity
  8
1
  6
Continuous
 62
     7
100
AcDbLine
 10
389.4999999999998
 20
667.209519
 30
0.0
 11
389.4999999999998
 21
667.4999999999998
 31
0.0
  0
ARC
  5
1FF
330
1E
100
AcDbEntity
  8
1
  6
Continuous
 62
     7
100
AcDbCircle
 10
390.5
 20
667.209519
 30
0.0
 40
1.0
100
AcDbArc
 50
180.0
 51
252.0797869999999
  0
ARC
  5
200
330
1E
100
AcDbEntity
  8
1
  6
Continuous
 62
     7
100
AcDbCircle
 10
395.0
 20
681.125
 30
0.0
 40
15.625
100
AcDbArc
 50
252.0797869999999
 51
287.9202129999999
  0
LINE
  5
201
330
1E
100
AcDbEntity
  8
1
  6
Continuous
 62
     7
100
AcDbLine
 10
400.4999999999998
 20
667.209519
 30
0.0
 11
400.4999999999998
 21
667.4999999999998
 31
0.0
  0
ARC
  5
202
330
1E
100
AcDbEntity
  8
1
  6
Continuous
 62
     7
100
AcDbCircle
 10
399.5
 20
667.209519
 30
0.0
 40
1.0
100
AcDbArc
 50
287.9202129999999
 51
0.0
  0
LINE
  5
203
330
1E
100
AcDbEntity
  8
1
  6
Continuous
 62
     7
100
AcDbLine
 10
373.4999999999998
 20
667.4999999999998
 30
0.0
 11
384.5
 21
667.4999999999998
 31
0.0
  0
LINE
  5
204
330
1E
100
AcDbEntity
  8
1
  6
Continuous
 62
     7
100
AcDbLine
 10
373.4999999999998
 20
667.209519
 30
0.0
 11
373.4999999999998
 21
667.4999999999998
 31
0.0
  0
ARC
  5
205
330
1E
100
AcDbEntity
  8
1
  6
Continuous
 62
     7
100
AcDbCircle
 10
374.5
 20
667.209519
 30
0.0
 40
1.0
100
AcDbArc
 50
180.0
 51
252.0797869999999
  0
ARC
  5
206
330
1E
100
AcDbEntity
  8
1
  6
Continuous
 62
     7
100
AcDbCircle
 10
379.0
 20
681.125
 30
0.0
 40
15.625
100
AcDbArc
 50
252.0797869999999
 51
287.9202129999999
  0
LINE
  5
207
330
1E
100
AcDbEntity
  8
1
  6
Continuous
 62
     7
100
AcDbLine
 10
384.5
 20
667.209519
 30
0.0
 11
384.5
 21
667.4999999999998
 31
0.0
  0
ARC
  5
208
330
1E
100
AcDbEntity
  8
1
  6
Continuous
 62
     7
100
AcDbCircle
 10
383.4999999999998
 20
667.209519
 30
0.0
 40
1.0
100
AcDbArc
 50
287.9202129999999
 51
0.0
  0
LINE
  5
209
330
1E
100
AcDbEntity
  8
1
  6
Continuous
 62
     7
100
AcDbLine
 10
182.0
 20
667.0151409999999
 30
0.0
 11
373.5190729999998
 21
667.0151409999999
 31
0.0
  0
LINE
  5
20A
330
1E
100
AcDbEntity
  8
1
  6
Continuous
 62
     7
100
AcDbLine
 10
384.480927
 20
667.0151409999999
 30
0.0
 11
389.5190729999998
 21
667.0151409999999
 31
0.0
  0
LINE
  5
20B
330
1E
100
AcDbEntity
  8
1
  6
Continuous
 62
     7
100
AcDbLine
 10
400.4809269999998
 20
667.0151409999999
 30
0.0
 11
405.5190729999996
 21
667.0151409999999
 31
0.0
  0
LINE
  5
20C
330
1E
100
AcDbEntity
  8
1
  6
Continuous
 62
     7
100
AcDbLine
 10
416.480927
 20
667.0151409999999
 30
0.0
 11
437.519073
 21
667.0151409999999
 31
0.0
  0
LINE
  5
20D
330
1E
100
AcDbEntity
  8
1
  6
Continuous
 62
     7
100
AcDbLine
 10
448.4809269999998
 20
667.0151409999999
 30
0.0
 11
471.006179
 21
667.0151409999999
 31
0.0
  0
LINE
  5
20E
330
1E
100
AcDbEntity
  8
1
  6
Continuous
 62
     7
100
AcDbLine
 10
478.9938209999998
 20
667.0151409999999
 30
0.0
 11
487.006179
 21
667.0151409999999
 31
0.0
  0
LINE
  5
20F
330
1E
100
AcDbEntity
  8
1
  6
Continuous
 62
     7
100
AcDbLine
 10
494.993821
 20
667.0151409999999
 30
0.0
 11
503.006179
 21
667.0151409999999
 31
0.0
  0
LINE
  5
210
330
1E
100
AcDbEntity
  8
1
  6
Continuous
 62
     7
100
AcDbLine
 10
576.0
 20
667.4999999999998
 30
0.0
 11
538.0
 21
667.4999999999998
 31
0.0
  0
LINE
  5
211
330
1E
100
AcDbEntity
  8
1
  6
Continuous
 62
     7
100
AcDbLine
 10
538.0
 20
667.4999999999998
 30
0.0
 11
538.0
 21
666.5
 31
0.0
  0
ARC
  5
212
330
1E
100
AcDbEntity
  8
1
  6
Continuous
 62
     7
100
AcDbCircle
 10
539.0
 20
666.5
 30
0.0
 40
1.0
100
AcDbArc
 50
180.0
 51
270.0
  0
LINE
  5
213
330
1E
100
AcDbEntity
  8
1
  6
Continuous
 62
     7
100
AcDbLine
 10
539.0
 20
665.5
 30
0.0
 11
575.0
 21
665.5
 31
0.0
  0
LINE
  5
214
330
1E
100
AcDbEntity
  8
1
  6
Continuous
 62
     7
100
AcDbLine
 10
576.0
 20
666.5
 30
0.0
 11
576.0
 21
667.4999999999998
 31
0.0
  0
ARC
  5
215
330
1E
100
AcDbEntity
  8
1
  6
Continuous
 62
     7
100
AcDbCircle
 10
575.0
 20
666.5
 30
0.0
 40
1.0
100
AcDbArc
 50
270.0
 51
0.0
  0
ARC
  5
216
330
1E
100
AcDbEntity
  8
1
  6
Continuous
 62
     7
100
AcDbCircle
 10
543.384643
 20
666.5
 30
0.0
 40
1.0
100
AcDbArc
 50
180.0000269999999
 51
270.0
  0
LINE
  5
217
330
1E
100
AcDbEntity
  8
1
  6
Continuous
 62
     7
100
AcDbLine
 10
542.384643
 20
666.5
 30
0.0
 11
542.384643
 21
667.4999999999998
 31
0.0
  0
ARC
  5
218
330
1E
100
AcDbEntity
  8
1
  6
Continuous
 62
     7
100
AcDbCircle
 10
545.8595179999998
 20
666.5
 30
0.0
 40
1.0
100
AcDbArc
 50
180.0000269999999
 51
270.0
  0
LINE
  5
219
330
1E
100
AcDbEntity
  8
1
  6
Continuous
 62
     7
100
AcDbLine
 10
544.8595179999998
 20
666.5
 30
0.0
 11
544.8595179999998
 21
667.4999999999998
 31
0.0
  0
ARC
  5
21A
330
1E
100
AcDbEntity
  8
1
  6
Continuous
 62
     7
100
AcDbCircle
 10
570.6153559999997
 20
666.5
 30
0.0
 40
1.0
100
AcDbArc
 50
270.0
 51
359.999973
  0
LINE
  5
21B
330
1E
100
AcDbEntity
  8
1
  6
Continuous
 62
     7
100
AcDbLine
 10
571.6153559999997
 20
666.5
 30
0.0
 11
571.6153559999997
 21
667.4999999999998
 31
0.0
  0
ARC
  5
21C
330
1E
100
AcDbEntity
  8
1
  6
Continuous
 62
     7
100
AcDbCircle
 10
568.1404809999998
 20
666.5
 30
0.0
 40
1.0
100
AcDbArc
 50
270.0
 51
359.999973
  0
LINE
  5
21D
330
1E
100
AcDbEntity
  8
1
  6
Continuous
 62
     7
100
AcDbLine
 10
569.1404809999998
 20
666.5
 30
0.0
 11
569.1404809999998
 21
667.4999999999998
 31
0.0
  0
LINE
  5
21E
330
1E
100
AcDbEntity
  8
1
  6
Continuous
 62
     7
100
AcDbLine
 10
510.993821
 20
667.0151409999999
 30
0.0
 11
538.0
 21
667.0151409999999
 31
0.0
  0
LINE
  5
21F
330
1E
100
AcDbEntity
  8
1
  6
Continuous
 62
     7
100
AcDbLine
 10
576.0
 20
667.0151409999999
 30
0.0
 11
618.0
 21
667.0151409999999
 31
0.0
  0
ARC
  5
220
330
1E
100
AcDbEntity
  8
1
  6
Continuous
 62
     7
100
AcDbCircle
 10
799.884643
 20
666.5
 30
0.0
 40
1.0
100
AcDbArc
 50
180.0000269999999
 51
270.0
  0
LINE
  5
221
330
1E
100
AcDbEntity
  8
1
  6
Continuous
 62
     7
100
AcDbLine
 10
798.8846429999996
 20
666.5
 30
0.0
 11
798.8846429999996
 21
667.4999999999998
 31
0.0
  0
ARC
  5
222
330
1E
100
AcDbEntity
  8
1
  6
Continuous
 62
     7
100
AcDbCircle
 10
802.3595179999999
 20
666.5
 30
0.0
 40
1.0
100
AcDbArc
 50
180.0000269999999
 51
270.0
  0
LINE
  5
223
330
1E
100
AcDbEntity
  8
1
  6
Continuous
 62
     7
100
AcDbLine
 10
801.3595179999999
 20
666.5
 30
0.0
 11
801.3595179999999
 21
667.4999999999998
 31
0.0
  0
ARC
  5
224
330
1E
100
AcDbEntity
  8
1
  6
Continuous
 62
     7
100
AcDbCircle
 10
827.1153559999996
 20
666.5
 30
0.0
 40
1.0
100
AcDbArc
 50
270.0
 51
359.999973
  0
LINE
  5
225
330
1E
100
AcDbEntity
  8
1
  6
Continuous
 62
     7
100
AcDbLine
 10
828.1153559999996
 20
666.5
 30
0.0
 11
828.1153559999996
 21
667.4999999999998
 31
0.0
  0
ARC
  5
226
330
1E
100
AcDbEntity
  8
1
  6
Continuous
 62
     7
100
AcDbCircle
 10
824.6404809999997
 20
666.5
 30
0.0
 40
1.0
100
AcDbArc
 50
270.0
 51
359.999973
  0
LINE
  5
227
330
1E
100
AcDbEntity
  8
1
  6
Continuous
 62
     7
100
AcDbLine
 10
825.6404809999997
 20
666.5
 30
0.0
 11
825.6404809999997
 21
667.4999999999998
 31
0.0
  0
LINE
  5
228
330
1E
100
AcDbEntity
  8
1
  6
Continuous
 62
     7
100
AcDbLine
 10
794.5
 20
668.0682619999998
 30
0.0
 11
794.5
 21
666.5
 31
0.0
  0
ARC
  5
229
330
1E
100
AcDbEntity
  8
1
  6
Continuous
 62
     7
100
AcDbCircle
 10
795.5
 20
666.5
 30
0.0
 40
1.0
100
AcDbArc
 50
180.0
 51
270.0
  0
LINE
  5
22A
330
1E
100
AcDbEntity
  8
1
  6
Continuous
 62
     7
100
AcDbLine
 10
795.5
 20
665.5
 30
0.0
 11
831.4999999999999
 21
665.5
 31
0.0
  0
LINE
  5
22B
330
1E
100
AcDbEntity
  8
1
  6
Continuous
 62
     7
100
AcDbLine
 10
832.4999999999999
 20
666.5
 30
0.0
 11
832.4999999999999
 21
668.0682619999998
 31
0.0
  0
ARC
  5
22C
330
1E
100
AcDbEntity
  8
1
  6
Continuous
 62
     7
100
AcDbCircle
 10
831.4999999999999
 20
666.5
 30
0.0
 40
1.0
100
AcDbArc
 50
270.0
 51
0.0
  0
LINE
  5
22E
330
1E
100
AcDbEntity
  8
1
  6
Continuous
 62
     7
100
AcDbLine
 10
215.0
 20
1209.084906
 30
0.0
 11
215.0
 21
1214.084906
 31
0.0
  0
LINE
  5
22F
330
1E
100
AcDbEntity
  8
1
  6
Continuous
 62
     7
100
AcDbLine
 10
215.0
 20
1214.084906
 30
0.0
 11
255.0
 21
1214.084906
 31
0.0
  0
LINE
  5
230
330
1E
100
AcDbEntity
  8
1
  6
Continuous
 62
     7
100
AcDbLine
 10
255.0
 20
1214.084906
 30
0.0
 11
255.0
 21
1209.084906
 31
0.0
  0
LINE
  5
231
330
1E
100
AcDbEntity
  8
1
  6
Continuous
 62
     7
100
AcDbLine
 10
255.0
 20
1209.084906
 30
0.0
 11
215.0
 21
1209.084906
 31
0.0
  0
LINE
  5
232
330
1E
100
AcDbEntity
  8
1
  6
Continuous
 62
     7
100
AcDbLine
 10
215.0
 20
1214.084906
 30
0.0
 11
217.5
 21
1216.584906
 31
0.0
  0
LINE
  5
233
330
1E
100
AcDbEntity
  8
1
  6
Continuous
 62
     7
100
AcDbLine
 10
217.5
 20
1216.584906
 30
0.0
 11
252.4999999999999
 21
1216.584906
 31
0.0
  0
LINE
  5
234
330
1E
100
AcDbEntity
  8
1
  6
Continuous
 62
     7
100
AcDbLine
 10
252.4999999999999
 20
1216.584906
 30
0.0
 11
255.0
 21
1214.084906
 31
0.0
  0
LINE
  5
235
330
1E
100
AcDbEntity
  8
1
  6
Continuous
 62
     7
100
AcDbLine
 10
215.0
 20
1209.084906
 30
0.0
 11
217.5
 21
1206.584906
 31
0.0
  0
LINE
  5
236
330
1E
100
AcDbEntity
  8
1
  6
Continuous
 62
     7
100
AcDbLine
 10
252.4999999999999
 20
1206.584906
 30
0.0
 11
255.0
 21
1209.084906
 31
0.0
  0
LINE
  5
237
330
1E
100
AcDbEntity
  8
1
  6
Continuous
 62
     7
100
AcDbLine
 10
545.0
 20
1209.084906
 30
0.0
 11
545.0
 21
1214.084906
 31
0.0
  0
LINE
  5
238
330
1E
100
AcDbEntity
  8
1
  6
Continuous
 62
     7
100
AcDbLine
 10
545.0
 20
1214.084906
 30
0.0
 11
585.0
 21
1214.084906
 31
0.0
  0
LINE
  5
239
330
1E
100
AcDbEntity
  8
1
  6
Continuous
 62
     7
100
AcDbLine
 10
585.0
 20
1214.084906
 30
0.0
 11
585.0
 21
1209.084906
 31
0.0
  0
LINE
  5
23A
330
1E
100
AcDbEntity
  8
1
  6
Continuous
 62
     7
100
AcDbLine
 10
585.0
 20
1209.084906
 30
0.0
 11
545.0
 21
1209.084906
 31
0.0
  0
LINE
  5
23B
330
1E
100
AcDbEntity
  8
1
  6
Continuous
 62
     7
100
AcDbLine
 10
545.0
 20
1214.084906
 30
0.0
 11
547.5
 21
1216.584906
 31
0.0
  0
LINE
  5
23C
330
1E
100
AcDbEntity
  8
1
  6
Continuous
 62
     7
100
AcDbLine
 10
547.5
 20
1216.584906
 30
0.0
 11
582.5
 21
1216.584906
 31
0.0
  0
LINE
  5
23D
330
1E
100
AcDbEntity
  8
1
  6
Continuous
 62
     7
100
AcDbLine
 10
582.5
 20
1216.584906
 30
0.0
 11
585.0
 21
1214.084906
 31
0.0
  0
LINE
  5
23E
330
1E
100
AcDbEntity
  8
1
  6
Continuous
 62
     7
100
AcDbLine
 10
545.0
 20
1209.084906
 30
0.0
 11
547.5
 21
1206.584906
 31
0.0
  0
LINE
  5
23F
330
1E
100
AcDbEntity
  8
1
  6
Continuous
 62
     7
100
AcDbLine
 10
582.5
 20
1206.584906
 30
0.0
 11
585.0
 21
1209.084906
 31
0.0
  0
LINE
  5
240
330
1E
100
AcDbEntity
  8
1
  6
Continuous
 62
     7
100
AcDbLine
 10
183.0
 20
1206.584906
 30
0.0
 11
183.0
 21
1153.584906
 31
0.0
  0
LINE
  5
241
330
1E
100
AcDbEntity
  8
1
  6
Continuous
 62
     7
100
AcDbLine
 10
183.0
 20
1153.584906
 30
0.0
 11
617.0
 21
1153.584906
 31
0.0
  0
LINE
  5
242
330
1E
100
AcDbEntity
  8
1
  6
Continuous
 62
     7
100
AcDbLine
 10
617.0
 20
1153.584906
 30
0.0
 11
617.0
 21
1206.584906
 31
0.0
  0
LINE
  5
243
330
1E
100
AcDbEntity
  8
1
  6
Continuous
 62
     7
100
AcDbLine
 10
617.0
 20
1206.584906
 30
0.0
 11
183.0
 21
1206.584906
 31
0.0
  0
LINE
  5
244
330
1E
100
AcDbEntity
  8
1
  6
Continuous
 62
     7
100
AcDbLine
 10
185.0
 20
1206.584906
 30
0.0
 11
187.0
 21
1204.584906
 31
0.0
  0
LINE
  5
245
330
1E
100
AcDbEntity
  8
1
  6
Continuous
 62
     7
100
AcDbLine
 10
187.0
 20
1204.584906
 30
0.0
 11
187.0
 21
1157.584906
 31
0.0
  0
LINE
  5
246
330
1E
100
AcDbEntity
  8
1
  6
Continuous
 62
     7
100
AcDbLine
 10
187.0
 20
1157.584906
 30
0.0
 11
183.0
 21
1153.584906
 31
0.0
  0
LINE
  5
247
330
1E
100
AcDbEntity
  8
1
  6
Continuous
 62
     7
100
AcDbLine
 10
187.0
 20
1157.584906
 30
0.0
 11
253.5
 21
1157.584906
 31
0.0
  0
LINE
  5
248
330
1E
100
AcDbEntity
  8
1
  6
Continuous
 62
     7
100
AcDbLine
 10
263.5
 20
1157.584906
 30
0.0
 11
536.5
 21
1157.584906
 31
0.0
  0
LINE
  5
249
330
1E
100
AcDbEntity
  8
1
  6
Continuous
 62
     7
100
AcDbLine
 10
546.4999999999998
 20
1157.584906
 30
0.0
 11
613.0
 21
1157.584906
 31
0.0
  0
LINE
  5
24A
330
1E
100
AcDbEntity
  8
1
  6
Continuous
 62
     7
100
AcDbLine
 10
617.0
 20
1153.584906
 30
0.0
 11
613.0
 21
1157.584906
 31
0.0
  0
LINE
  5
24B
330
1E
100
AcDbEntity
  8
1
  6
Continuous
 62
     7
100
AcDbLine
 10
613.0
 20
1157.584906
 30
0.0
 11
613.0
 21
1204.584906
 31
0.0
  0
LINE
  5
24C
330
1E
100
AcDbEntity
  8
1
  6
Continuous
 62
     7
100
AcDbLine
 10
613.0
 20
1204.584906
 30
0.0
 11
615.0
 21
1206.584906
 31
0.0
  0
LINE
  5
24D
330
1E
100
AcDbEntity
  8
1
  6
Continuous
 62
     7
100
AcDbLine
 10
536.5
 20
1157.584906
 30
0.0
 11
536.5
 21
1162.584905999999
 31
0.0
  0
LINE
  5
24E
330
1E
100
AcDbEntity
  8
1
  6
Continuous
 62
     7
100
AcDbLine
 10
536.5
 20
1162.584905999999
 30
0.0
 11
538.4999999999998
 21
1164.584906
 31
0.0
  0
LINE
  5
24F
330
1E
100
AcDbEntity
  8
1
  6
Continuous
 62
     7
100
AcDbLine
 10
538.4999999999998
 20
1164.584906
 30
0.0
 11
544.5
 21
1164.584906
 31
0.0
  0
LINE
  5
250
330
1E
100
AcDbEntity
  8
1
  6
Continuous
 62
     7
100
AcDbLine
 10
546.4999999999998
 20
1157.584906
 30
0.0
 11
546.4999999999998
 21
1162.584905999999
 31
0.0
  0
LINE
  5
251
330
1E
100
AcDbEntity
  8
1
  6
Continuous
 62
     7
100
AcDbLine
 10
544.5
 20
1164.584906
 30
0.0
 11
546.4999999999998
 21
1162.584905999999
 31
0.0
  0
LINE
  5
252
330
1E
100
AcDbEntity
  8
1
  6
Continuous
 62
     7
100
AcDbLine
 10
253.5
 20
1157.584906
 30
0.0
 11
253.5
 21
1162.584905999999
 31
0.0
  0
LINE
  5
253
330
1E
100
AcDbEntity
  8
1
  6
Continuous
 62
     7
100
AcDbLine
 10
253.5
 20
1162.584905999999
 30
0.0
 11
255.5
 21
1164.584906
 31
0.0
  0
LINE
  5
254
330
1E
100
AcDbEntity
  8
1
  6
Continuous
 62
     7
100
AcDbLine
 10
255.5
 20
1164.584906
 30
0.0
 11
261.5
 21
1164.584906
 31
0.0
  0
LINE
  5
255
330
1E
100
AcDbEntity
  8
1
  6
Continuous
 62
     7
100
AcDbLine
 10
263.5
 20
1157.584906
 30
0.0
 11
263.5
 21
1162.584905999999
 31
0.0
  0
LINE
  5
256
330
1E
100
AcDbEntity
  8
1
  6
Continuous
 62
     7
100
AcDbLine
 10
261.5
 20
1164.584906
 30
0.0
 11
263.5
 21
1162.584905999999
 31
0.0
  0
CIRCLE
  5
257
330
1E
100
AcDbEntity
  8
1
  6
Continuous
 62
     7
100
AcDbCircle
 10
541.5
 20
1159.584906
 30
0.0
 40
2.5
  0
LINE
  5
258
330
1E
100
AcDbEntity
  8
1
  6
Continuous
 62
     7
100
AcDbLine
 10
540.0
 20
1159.584906
 30
0.0
 11
543.0
 21
1159.584906
 31
0.0
  0
LINE
  5
259
330
1E
100
AcDbEntity
  8
1
  6
Continuous
 62
     7
100
AcDbLine
 10
541.5
 20
1161.084906
 30
0.0
 11
541.5
 21
1158.084906
 31
0.0
  0
CIRCLE
  5
25A
330
1E
100
AcDbEntity
  8
1
  6
Continuous
 62
     7
100
AcDbCircle
 10
258.4999999999999
 20
1159.584906
 30
0.0
 40
2.5
  0
LINE
  5
25B
330
1E
100
AcDbEntity
  8
1
  6
Continuous
 62
     7
100
AcDbLine
 10
257.0
 20
1159.584906
 30
0.0
 11
260.0
 21
1159.584906
 31
0.0
  0
LINE
  5
25C
330
1E
100
AcDbEntity
  8
1
  6
Continuous
 62
     7
100
AcDbLine
 10
258.4999999999999
 20
1161.084906
 30
0.0
 11
258.4999999999999
 21
1158.084906
 31
0.0
  0
LINE
  5
25D
330
1E
100
AcDbEntity
  8
1
  6
Continuous
 62
     7
100
AcDbLine
 10
604.5076599999998
 20
1189.583513
 30
0.0
 11
603.650011
 21
1189.583513
 31
0.0
  0
LINE
  5
25E
330
1E
100
AcDbEntity
  8
1
  6
Continuous
 62
     7
100
AcDbLine
 10
604.5076599999998
 20
1191.586299
 30
0.0
 11
604.5076599999998
 21
1189.583513
 31
0.0
  0
LINE
  5
25F
330
1E
100
AcDbEntity
  8
1
  6
Continuous
 62
     7
100
AcDbLine
 10
603.650011
 20
1191.586299
 30
0.0
 11
604.5076599999998
 21
1191.586299
 31
0.0
  0
LINE
  5
260
330
1E
100
AcDbEntity
  8
1
  6
Continuous
 62
     7
100
AcDbLine
 10
593.49234
 20
1189.583513
 30
0.0
 11
594.3499889999998
 21
1189.583513
 31
0.0
  0
LINE
  5
261
330
1E
100
AcDbEntity
  8
1
  6
Continuous
 62
     7
100
AcDbLine
 10
593.49234
 20
1191.586299
 30
0.0
 11
593.49234
 21
1189.583513
 31
0.0
  0
LINE
  5
262
330
1E
100
AcDbEntity
  8
1
  6
Continuous
 62
     7
100
AcDbLine
 10
594.3499889999998
 20
1191.586299
 30
0.0
 11
593.49234
 21
1191.586299
 31
0.0
  0
CIRCLE
  5
263
330
1E
100
AcDbEntity
  8
1
  6
Continuous
 62
     7
100
AcDbCircle
 10
599.0
 20
1190.584906
 30
0.0
 40
0.751045
  0
CIRCLE
  5
264
330
1E
100
AcDbEntity
  8
1
  6
Continuous
 62
     7
100
AcDbCircle
 10
599.0
 20
1190.584906
 30
0.0
 40
2.503481999999999
  0
CIRCLE
  5
265
330
1E
100
AcDbEntity
  8
1
  6
Continuous
 62
     7
100
AcDbCircle
 10
599.0
 20
1190.584906
 30
0.0
 40
4.005570999999997
  0
CIRCLE
  5
266
330
1E
100
AcDbEntity
  8
1
  6
Continuous
 62
     7
100
AcDbCircle
 10
599.0
 20
1190.584906
 30
0.0
 40
4.756615
  0
CIRCLE
  5
267
330
1E
100
AcDbEntity
  8
1
  6
Continuous
 62
     7
100
AcDbCircle
 10
599.0
 20
1190.584906
 30
0.0
 40
6.509052999999997
  0
LINE
  5
268
330
1E
100
AcDbEntity
  8
1
  6
Continuous
 62
     7
100
AcDbLine
 10
604.5076599999998
 20
1169.583513
 30
0.0
 11
603.650011
 21
1169.583513
 31
0.0
  0
LINE
  5
269
330
1E
100
AcDbEntity
  8
1
  6
Continuous
 62
     7
100
AcDbLine
 10
604.5076599999998
 20
1171.586299
 30
0.0
 11
604.5076599999998
 21
1169.583513
 31
0.0
  0
LINE
  5
26A
330
1E
100
AcDbEntity
  8
1
  6
Continuous
 62
     7
100
AcDbLine
 10
603.650011
 20
1171.586299
 30
0.0
 11
604.5076599999998
 21
1171.586299
 31
0.0
  0
LINE
  5
26B
330
1E
100
AcDbEntity
  8
1
  6
Continuous
 62
     7
100
AcDbLine
 10
593.49234
 20
1169.583513
 30
0.0
 11
594.3499889999998
 21
1169.583513
 31
0.0
  0
LINE
  5
26C
330
1E
100
AcDbEntity
  8
1
  6
Continuous
 62
     7
100
AcDbLine
 10
593.49234
 20
1171.586299
 30
0.0
 11
593.49234
 21
1169.583513
 31
0.0
  0
LINE
  5
26D
330
1E
100
AcDbEntity
  8
1
  6
Continuous
 62
     7
100
AcDbLine
 10
594.3499889999998
 20
1171.586299
 30
0.0
 11
593.49234
 21
1171.586299
 31
0.0
  0
CIRCLE
  5
26E
330
1E
100
AcDbEntity
  8
1
  6
Continuous
 62
     7
100
AcDbCircle
 10
599.0
 20
1170.584905999999
 30
0.0
 40
0.751045
  0
CIRCLE
  5
26F
330
1E
100
AcDbEntity
  8
1
  6
Continuous
 62
     7
100
AcDbCircle
 10
599.0
 20
1170.584905999999
 30
0.0
 40
2.503481999999999
  0
CIRCLE
  5
270
330
1E
100
AcDbEntity
  8
1
  6
Continuous
 62
     7
100
AcDbCircle
 10
599.0
 20
1170.584905999999
 30
0.0
 40
4.005570999999997
  0
CIRCLE
  5
271
330
1E
100
AcDbEntity
  8
1
  6
Continuous
 62
     7
100
AcDbCircle
 10
599.0
 20
1170.584905999999
 30
0.0
 40
4.756615
  0
CIRCLE
  5
272
330
1E
100
AcDbEntity
  8
1
  6
Continuous
 62
     7
100
AcDbCircle
 10
599.0
 20
1170.584905999999
 30
0.0
 40
6.509052999999997
  0
LINE
  5
273
330
1E
100
AcDbEntity
  8
1
  6
Continuous
 62
     7
100
AcDbLine
 10
584.5076599999997
 20
1189.583513
 30
0.0
 11
583.6500110000002
 21
1189.583513
 31
0.0
  0
LINE
  5
274
330
1E
100
AcDbEntity
  8
1
  6
Continuous
 62
     7
100
AcDbLine
 10
584.5076599999997
 20
1191.586299
 30
0.0
 11
584.5076599999997
 21
1189.583513
 31
0.0
  0
LINE
  5
275
330
1E
100
AcDbEntity
  8
1
  6
Continuous
 62
     7
100
AcDbLine
 10
583.6500110000002
 20
1191.586299
 30
0.0
 11
584.5076599999997
 21
1191.586299
 31
0.0
  0
LINE
  5
276
330
1E
100
AcDbEntity
  8
1
  6
Continuous
 62
     7
100
AcDbLine
 10
573.49234
 20
1189.583513
 30
0.0
 11
574.3499889999998
 21
1189.583513
 31
0.0
  0
LINE
  5
277
330
1E
100
AcDbEntity
  8
1
  6
Continuous
 62
     7
100
AcDbLine
 10
573.49234
 20
1191.586299
 30
0.0
 11
573.49234
 21
1189.583513
 31
0.0
  0
LINE
  5
278
330
1E
100
AcDbEntity
  8
1
  6
Continuous
 62
     7
100
AcDbLine
 10
574.3499889999998
 20
1191.586299
 30
0.0
 11
573.49234
 21
1191.586299
 31
0.0
  0
CIRCLE
  5
279
330
1E
100
AcDbEntity
  8
1
  6
Continuous
 62
     7
100
AcDbCircle
 10
579.0
 20
1190.584906
 30
0.0
 40
0.751045
  0
CIRCLE
  5
27A
330
1E
100
AcDbEntity
  8
1
  6
Continuous
 62
     7
100
AcDbCircle
 10
579.0
 20
1190.584906
 30
0.0
 40
2.503481999999999
  0
CIRCLE
  5
27B
330
1E
100
AcDbEntity
  8
1
  6
Continuous
 62
     7
100
AcDbCircle
 10
579.0
 20
1190.584906
 30
0.0
 40
4.005570999999997
  0
CIRCLE
  5
27C
330
1E
100
AcDbEntity
  8
1
  6
Continuous
 62
     7
100
AcDbCircle
 10
579.0
 20
1190.584906
 30
0.0
 40
4.756615
  0
CIRCLE
  5
27D
330
1E
100
AcDbEntity
  8
1
  6
Continuous
 62
     7
100
AcDbCircle
 10
579.0
 20
1190.584906
 30
0.0
 40
6.509052999999997
  0
LINE
  5
27E
330
1E
100
AcDbEntity
  8
1
  6
Continuous
 62
     7
100
AcDbLine
 10
584.5076599999997
 20
1169.583513
 30
0.0
 11
583.6500110000002
 21
1169.583513
 31
0.0
  0
LINE
  5
27F
330
1E
100
AcDbEntity
  8
1
  6
Continuous
 62
     7
100
AcDbLine
 10
584.5076599999997
 20
1171.586299
 30
0.0
 11
584.5076599999997
 21
1169.583513
 31
0.0
  0
LINE
  5
280
330
1E
100
AcDbEntity
  8
1
  6
Continuous
 62
     7
100
AcDbLine
 10
583.6500110000002
 20
1171.586299
 30
0.0
 11
584.5076599999997
 21
1171.586299
 31
0.0
  0
LINE
  5
281
330
1E
100
AcDbEntity
  8
1
  6
Continuous
 62
     7
100
AcDbLine
 10
573.49234
 20
1169.583513
 30
0.0
 11
574.3499889999998
 21
1169.583513
 31
0.0
  0
LINE
  5
282
330
1E
100
AcDbEntity
  8
1
  6
Continuous
 62
     7
100
AcDbLine
 10
573.49234
 20
1171.586299
 30
0.0
 11
573.49234
 21
1169.583513
 31
0.0
  0
LINE
  5
283
330
1E
100
AcDbEntity
  8
1
  6
Continuous
 62
     7
100
AcDbLine
 10
574.3499889999998
 20
1171.586299
 30
0.0
 11
573.49234
 21
1171.586299
 31
0.0
  0
CIRCLE
  5
284
330
1E
100
AcDbEntity
  8
1
  6
Continuous
 62
     7
100
AcDbCircle
 10
579.0
 20
1170.584905999999
 30
0.0
 40
0.751045
  0
CIRCLE
  5
285
330
1E
100
AcDbEntity
  8
1
  6
Continuous
 62
     7
100
AcDbCircle
 10
579.0
 20
1170.584905999999
 30
0.0
 40
2.503481999999999
  0
CIRCLE
  5
286
330
1E
100
AcDbEntity
  8
1
  6
Continuous
 62
     7
100
AcDbCircle
 10
579.0
 20
1170.584905999999
 30
0.0
 40
4.005570999999997
  0
CIRCLE
  5
287
330
1E
100
AcDbEntity
  8
1
  6
Continuous
 62
     7
100
AcDbCircle
 10
579.0
 20
1170.584905999999
 30
0.0
 40
4.756615
  0
CIRCLE
  5
288
330
1E
100
AcDbEntity
  8
1
  6
Continuous
 62
     7
100
AcDbCircle
 10
579.0
 20
1170.584905999999
 30
0.0
 40
6.509052999999997
  0
LINE
  5
289
330
1E
100
AcDbEntity
  8
1
  6
Continuous
 62
     7
100
AcDbLine
 10
564.50766
 20
1189.583513
 30
0.0
 11
563.650011
 21
1189.583513
 31
0.0
  0
LINE
  5
28A
330
1E
100
AcDbEntity
  8
1
  6
Continuous
 62
     7
100
AcDbLine
 10
564.50766
 20
1191.586299
 30
0.0
 11
564.50766
 21
1189.583513
 31
0.0
  0
LINE
  5
28B
330
1E
100
AcDbEntity
  8
1
  6
Continuous
 62
     7
100
AcDbLine
 10
563.650011
 20
1191.586299
 30
0.0
 11
564.50766
 21
1191.586299
 31
0.0
  0
LINE
  5
28C
330
1E
100
AcDbEntity
  8
1
  6
Continuous
 62
     7
100
AcDbLine
 10
553.49234
 20
1189.583513
 30
0.0
 11
554.3499889999998
 21
1189.583513
 31
0.0
  0
LINE
  5
28D
330
1E
100
AcDbEntity
  8
1
  6
Continuous
 62
     7
100
AcDbLine
 10
553.49234
 20
1191.586299
 30
0.0
 11
553.49234
 21
1189.583513
 31
0.0
  0
LINE
  5
28E
330
1E
100
AcDbEntity
  8
1
  6
Continuous
 62
     7
100
AcDbLine
 10
554.3499889999998
 20
1191.586299
 30
0.0
 11
553.49234
 21
1191.586299
 31
0.0
  0
CIRCLE
  5
28F
330
1E
100
AcDbEntity
  8
1
  6
Continuous
 62
     7
100
AcDbCircle
 10
559.0
 20
1190.584906
 30
0.0
 40
0.751045
  0
CIRCLE
  5
290
330
1E
100
AcDbEntity
  8
1
  6
Continuous
 62
     7
100
AcDbCircle
 10
559.0
 20
1190.584906
 30
0.0
 40
2.503481999999999
  0
CIRCLE
  5
291
330
1E
100
AcDbEntity
  8
1
  6
Continuous
 62
     7
100
AcDbCircle
 10
559.0
 20
1190.584906
 30
0.0
 40
4.005570999999997
  0
CIRCLE
  5
292
330
1E
100
AcDbEntity
  8
1
  6
Continuous
 62
     7
100
AcDbCircle
 10
559.0
 20
1190.584906
 30
0.0
 40
4.756615
  0
CIRCLE
  5
293
330
1E
100
AcDbEntity
  8
1
  6
Continuous
 62
     7
100
AcDbCircle
 10
559.0
 20
1190.584906
 30
0.0
 40
6.509052999999997
  0
LINE
  5
294
330
1E
100
AcDbEntity
  8
1
  6
Continuous
 62
     7
100
AcDbLine
 10
564.50766
 20
1169.583513
 30
0.0
 11
563.650011
 21
1169.583513
 31
0.0
  0
LINE
  5
295
330
1E
100
AcDbEntity
  8
1
  6
Continuous
 62
     7
100
AcDbLine
 10
564.50766
 20
1171.586299
 30
0.0
 11
564.50766
 21
1169.583513
 31
0.0
  0
LINE
  5
296
330
1E
100
AcDbEntity
  8
1
  6
Continuous
 62
     7
100
AcDbLine
 10
563.650011
 20
1171.586299
 30
0.0
 11
564.50766
 21
1171.586299
 31
0.0
  0
LINE
  5
297
330
1E
100
AcDbEntity
  8
1
  6
Continuous
 62
     7
100
AcDbLine
 10
553.49234
 20
1169.583513
 30
0.0
 11
554.3499889999998
 21
1169.583513
 31
0.0
  0
LINE
  5
298
330
1E
100
AcDbEntity
  8
1
  6
Continuous
 62
     7
100
AcDbLine
 10
553.49234
 20
1171.586299
 30
0.0
 11
553.49234
 21
1169.583513
 31
0.0
  0
LINE
  5
299
330
1E
100
AcDbEntity
  8
1
  6
Continuous
 62
     7
100
AcDbLine
 10
554.3499889999998
 20
1171.586299
 30
0.0
 11
553.49234
 21
1171.586299
 31
0.0
  0
CIRCLE
  5
29A
330
1E
100
AcDbEntity
  8
1
  6
Continuous
 62
     7
100
AcDbCircle
 10
559.0
 20
1170.584905999999
 30
0.0
 40
0.751045
  0
CIRCLE
  5
29B
330
1E
100
AcDbEntity
  8
1
  6
Continuous
 62
     7
100
AcDbCircle
 10
559.0
 20
1170.584905999999
 30
0.0
 40
2.503481999999999
  0
CIRCLE
  5
29C
330
1E
100
AcDbEntity
  8
1
  6
Continuous
 62
     7
100
AcDbCircle
 10
559.0
 20
1170.584905999999
 30
0.0
 40
4.005570999999997
  0
CIRCLE
  5
29D
330
1E
100
AcDbEntity
  8
1
  6
Continuous
 62
     7
100
AcDbCircle
 10
559.0
 20
1170.584905999999
 30
0.0
 40
4.756615
  0
CIRCLE
  5
29E
330
1E
100
AcDbEntity
  8
1
  6
Continuous
 62
     7
100
AcDbCircle
 10
559.0
 20
1170.584905999999
 30
0.0
 40
6.509052999999997
  0
CIRCLE
  5
29F
330
1E
100
AcDbEntity
  8
1
  6
Continuous
 62
     7
100
AcDbCircle
 10
521.0
 20
1190.584906
 30
0.0
 40
3.004178
  0
CIRCLE
  5
2A0
330
1E
100
AcDbEntity
  8
1
  6
Continuous
 62
     7
100
AcDbCircle
 10
521.0
 20
1190.584906
 30
0.0
 40
1.502088999999999
  0
CIRCLE
  5
2A1
330
1E
100
AcDbEntity
  8
1
  6
Continuous
 62
     7
100
AcDbCircle
 10
521.0
 20
1190.584906
 30
0.0
 40
4.005570999999997
  0
CIRCLE
  5
2A2
330
1E
100
AcDbEntity
  8
1
  6
Continuous
 62
     7
100
AcDbCircle
 10
521.0
 20
1190.584906
 30
0.0
 40
6.008356
  0
CIRCLE
  5
2A3
330
1E
100
AcDbEntity
  8
1
  6
Continuous
 62
     7
100
AcDbCircle
 10
521.0
 20
1176.584906
 30
0.0
 40
3.004178
  0
CIRCLE
  5
2A4
330
1E
100
AcDbEntity
  8
1
  6
Continuous
 62
     7
100
AcDbCircle
 10
521.0
 20
1176.584906
 30
0.0
 40
1.502088999999999
  0
CIRCLE
  5
2A5
330
1E
100
AcDbEntity
  8
1
  6
Continuous
 62
     7
100
AcDbCircle
 10
521.0
 20
1176.584906
 30
0.0
 40
4.005570999999997
  0
CIRCLE
  5
2A6
330
1E
100
AcDbEntity
  8
1
  6
Continuous
 62
     7
100
AcDbCircle
 10
521.0
 20
1176.584906
 30
0.0
 40
6.008356
  0
CIRCLE
  5
2A7
330
1E
100
AcDbEntity
  8
1
  6
Continuous
 62
     7
100
AcDbCircle
 10
507.0
 20
1190.584906
 30
0.0
 40
3.004178
  0
CIRCLE
  5
2A8
330
1E
100
AcDbEntity
  8
1
  6
Continuous
 62
     7
100
AcDbCircle
 10
507.0
 20
1190.584906
 30
0.0
 40
1.502088999999999
  0
CIRCLE
  5
2A9
330
1E
100
AcDbEntity
  8
1
  6
Continuous
 62
     7
100
AcDbCircle
 10
507.0
 20
1190.584906
 30
0.0
 40
4.005570999999997
  0
CIRCLE
  5
2AA
330
1E
100
AcDbEntity
  8
1
  6
Continuous
 62
     7
100
AcDbCircle
 10
507.0
 20
1190.584906
 30
0.0
 40
6.008356
  0
CIRCLE
  5
2AB
330
1E
100
AcDbEntity
  8
1
  6
Continuous
 62
     7
100
AcDbCircle
 10
507.0
 20
1176.584906
 30
0.0
 40
3.004178
  0
CIRCLE
  5
2AC
330
1E
100
AcDbEntity
  8
1
  6
Continuous
 62
     7
100
AcDbCircle
 10
507.0
 20
1176.584906
 30
0.0
 40
1.502088999999999
  0
CIRCLE
  5
2AD
330
1E
100
AcDbEntity
  8
1
  6
Continuous
 62
     7
100
AcDbCircle
 10
507.0
 20
1176.584906
 30
0.0
 40
4.005570999999997
  0
CIRCLE
  5
2AE
330
1E
100
AcDbEntity
  8
1
  6
Continuous
 62
     7
100
AcDbCircle
 10
507.0
 20
1176.584906
 30
0.0
 40
6.008356
  0
CIRCLE
  5
2AF
330
1E
100
AcDbEntity
  8
1
  6
Continuous
 62
     7
100
AcDbCircle
 10
493.0
 20
1189.584906
 30
0.0
 40
3.004178
  0
CIRCLE
  5
2B0
330
1E
100
AcDbEntity
  8
1
  6
Continuous
 62
     7
100
AcDbCircle
 10
493.0
 20
1189.584906
 30
0.0
 40
1.502088999999999
  0
CIRCLE
  5
2B1
330
1E
100
AcDbEntity
  8
1
  6
Continuous
 62
     7
100
AcDbCircle
 10
493.0
 20
1189.584906
 30
0.0
 40
4.005570999999997
  0
ARC
  5
2B2
330
1E
100
AcDbEntity
  8
1
  6
Continuous
 62
     7
100
AcDbCircle
 10
581.875
 20
1025.5
 30
0.0
 40
12.625
100
AcDbArc
 50
348.5788139999998
 51
11.421186
  0
ARC
  5
2B3
330
1E
100
AcDbEntity
  8
1
  6
Continuous
 62
     7
100
AcDbCircle
 10
616.1249999999999
 20
1025.5
 30
0.0
 40
12.625
100
AcDbArc
 50
168.5788139999999
 51
191.4211859999999
  0
LINE
  5
2B4
330
1E
100
AcDbEntity
  8
1
  6
Continuous
 62
     7
100
AcDbLine
 10
594.2499999999999
 20
1028.0
 30
0.0
 11
594.2499999999999
 21
1030.0
 31
0.0
  0
LINE
  5
2B5
330
1E
100
AcDbEntity
  8
1
  6
Continuous
 62
     7
100
AcDbLine
 10
594.2499999999999
 20
1030.0
 30
0.0
 11
603.75
 21
1030.0
 31
0.0
  0
LINE
  5
2B6
330
1E
100
AcDbEntity
  8
1
  6
Continuous
 62
     7
100
AcDbLine
 10
603.75
 20
1030.0
 30
0.0
 11
603.75
 21
1028.0
 31
0.0
  0
LINE
  5
2B7
330
1E
100
AcDbEntity
  8
1
  6
Continuous
 62
     7
100
AcDbLine
 10
594.2499999999999
 20
1020.0
 30
0.0
 11
594.2499999999999
 21
1023.0
 31
0.0
  0
LINE
  5
2B8
330
1E
100
AcDbEntity
  8
1
  6
Continuous
 62
     7
100
AcDbLine
 10
603.75
 20
1023.0
 30
0.0
 11
603.75
 21
1020.0
 31
0.0
  0
LINE
  5
2B9
330
1E
100
AcDbEntity
  8
1
  6
Continuous
 62
     7
100
AcDbLine
 10
594.4603339999997
 20
1026.5
 30
0.0
 11
593.5
 21
1026.5
 31
0.0
  0
LINE
  5
2BA
330
1E
100
AcDbEntity
  8
1
  6
Continuous
 62
     7
100
AcDbLine
 10
593.5
 20
1026.5
 30
0.0
 11
593.5
 21
1024.5
 31
0.0
  0
LINE
  5
2BB
330
1E
100
AcDbEntity
  8
1
  6
Continuous
 62
     7
100
AcDbLine
 10
593.5
 20
1024.5
 30
0.0
 11
594.4603339999997
 21
1024.5
 31
0.0
  0
LINE
  5
2BC
330
1E
100
AcDbEntity
  8
1
  6
Continuous
 62
     7
100
AcDbLine
 10
603.5396659999999
 20
1026.5
 30
0.0
 11
604.4999999999999
 21
1026.5
 31
0.0
  0
LINE
  5
2BD
330
1E
100
AcDbEntity
  8
1
  6
Continuous
 62
     7
100
AcDbLine
 10
604.4999999999999
 20
1026.5
 30
0.0
 11
604.4999999999999
 21
1024.5
 31
0.0
  0
LINE
  5
2BE
330
1E
100
AcDbEntity
  8
1
  6
Continuous
 62
     7
100
AcDbLine
 10
604.4999999999999
 20
1024.5
 30
0.0
 11
603.5396659999999
 21
1024.5
 31
0.0
  0
ARC
  5
2BF
330
1E
100
AcDbEntity
  8
1
  6
Continuous
 62
     7
100
AcDbCircle
 10
561.875
 20
1025.5
 30
0.0
 40
12.625
100
AcDbArc
 50
348.5788139999998
 51
11.421186
  0
ARC
  5
2C0
330
1E
100
AcDbEntity
  8
1
  6
Continuous
 62
     7
100
AcDbCircle
 10
596.1249999999997
 20
1025.5
 30
0.0
 40
12.625
100
AcDbArc
 50
168.5788139999999
 51
191.4211859999999
  0
LINE
  5
2C1
330
1E
100
AcDbEntity
  8
1
  6
Continuous
 62
     7
100
AcDbLine
 10
574.2499999999997
 20
1028.0
 30
0.0
 11
574.2499999999997
 21
1030.0
 31
0.0
  0
LINE
  5
2C2
330
1E
100
AcDbEntity
  8
1
  6
Continuous
 62
     7
100
AcDbLine
 10
574.2499999999997
 20
1030.0
 30
0.0
 11
583.75
 21
1030.0
 31
0.0
  0
LINE
  5
2C3
330
1E
100
AcDbEntity
  8
1
  6
Continuous
 62
     7
100
AcDbLine
 10
583.75
 20
1030.0
 30
0.0
 11
583.75
 21
1028.0
 31
0.0
  0
LINE
  5
2C4
330
1E
100
AcDbEntity
  8
1
  6
Continuous
 62
     7
100
AcDbLine
 10
574.2499999999997
 20
1020.0
 30
0.0
 11
574.2499999999997
 21
1023.0
 31
0.0
  0
LINE
  5
2C5
330
1E
100
AcDbEntity
  8
1
  6
Continuous
 62
     7
100
AcDbLine
 10
583.75
 20
1023.0
 30
0.0
 11
583.75
 21
1020.0
 31
0.0
  0
LINE
  5
2C6
330
1E
100
AcDbEntity
  8
1
  6
Continuous
 62
     7
100
AcDbLine
 10
574.460334
 20
1026.5
 30
0.0
 11
573.5
 21
1026.5
 31
0.0
  0
LINE
  5
2C7
330
1E
100
AcDbEntity
  8
1
  6
Continuous
 62
     7
100
AcDbLine
 10
573.5
 20
1026.5
 30
0.0
 11
573.5
 21
1024.5
 31
0.0
  0
LINE
  5
2C8
330
1E
100
AcDbEntity
  8
1
  6
Continuous
 62
     7
100
AcDbLine
 10
573.5
 20
1024.5
 30
0.0
 11
574.460334
 21
1024.5
 31
0.0
  0
LINE
  5
2C9
330
1E
100
AcDbEntity
  8
1
  6
Continuous
 62
     7
100
AcDbLine
 10
583.5396659999998
 20
1026.5
 30
0.0
 11
584.4999999999997
 21
1026.5
 31
0.0
  0
LINE
  5
2CA
330
1E
100
AcDbEntity
  8
1
  6
Continuous
 62
     7
100
AcDbLine
 10
584.4999999999997
 20
1026.5
 30
0.0
 11
584.4999999999997
 21
1024.5
 31
0.0
  0
LINE
  5
2CB
330
1E
100
AcDbEntity
  8
1
  6
Continuous
 62
     7
100
AcDbLine
 10
584.4999999999997
 20
1024.5
 30
0.0
 11
583.5396659999998
 21
1024.5
 31
0.0
  0
ARC
  5
2CC
330
1E
100
AcDbEntity
  8
1
  6
Continuous
 62
     7
100
AcDbCircle
 10
541.875
 20
1025.5
 30
0.0
 40
12.625
100
AcDbArc
 50
348.5788139999998
 51
11.421186
  0
ARC
  5
2CD
330
1E
100
AcDbEntity
  8
1
  6
Continuous
 62
     7
100
AcDbCircle
 10
576.125
 20
1025.5
 30
0.0
 40
12.625
100
AcDbArc
 50
168.5788139999999
 51
191.4211859999999
  0
LINE
  5
2CE
330
1E
100
AcDbEntity
  8
1
  6
Continuous
 62
     7
100
AcDbLine
 10
554.25
 20
1028.0
 30
0.0
 11
554.25
 21
1030.0
 31
0.0
  0
LINE
  5
2CF
330
1E
100
AcDbEntity
  8
1
  6
Continuous
 62
     7
100
AcDbLine
 10
554.25
 20
1030.0
 30
0.0
 11
563.75
 21
1030.0
 31
0.0
  0
LINE
  5
2D0
330
1E
100
AcDbEntity
  8
1
  6
Continuous
 62
     7
100
AcDbLine
 10
563.75
 20
1030.0
 30
0.0
 11
563.75
 21
1028.0
 31
0.0
  0
LINE
  5
2D1
330
1E
100
AcDbEntity
  8
1
  6
Continuous
 62
     7
100
AcDbLine
 10
554.25
 20
1020.0
 30
0.0
 11
554.25
 21
1023.0
 31
0.0
  0
LINE
  5
2D2
330
1E
100
AcDbEntity
  8
1
  6
Continuous
 62
     7
100
AcDbLine
 10
563.75
 20
1023.0
 30
0.0
 11
563.75
 21
1020.0
 31
0.0
  0
LINE
  5
2D3
330
1E
100
AcDbEntity
  8
1
  6
Continuous
 62
     7
100
AcDbLine
 10
554.460334
 20
1026.5
 30
0.0
 11
553.5
 21
1026.5
 31
0.0
  0
LINE
  5
2D4
330
1E
100
AcDbEntity
  8
1
  6
Continuous
 62
     7
100
AcDbLine
 10
553.5
 20
1026.5
 30
0.0
 11
553.5
 21
1024.5
 31
0.0
  0
LINE
  5
2D5
330
1E
100
AcDbEntity
  8
1
  6
Continuous
 62
     7
100
AcDbLine
 10
553.5
 20
1024.5
 30
0.0
 11
554.460334
 21
1024.5
 31
0.0
  0
LINE
  5
2D6
330
1E
100
AcDbEntity
  8
1
  6
Continuous
 62
     7
100
AcDbLine
 10
563.539666
 20
1026.5
 30
0.0
 11
564.5
 21
1026.5
 31
0.0
  0
LINE
  5
2D7
330
1E
100
AcDbEntity
  8
1
  6
Continuous
 62
     7
100
AcDbLine
 10
564.5
 20
1026.5
 30
0.0
 11
564.5
 21
1024.5
 31
0.0
  0
LINE
  5
2D8
330
1E
100
AcDbEntity
  8
1
  6
Continuous
 62
     7
100
AcDbLine
 10
564.5
 20
1024.5
 30
0.0
 11
563.539666
 21
1024.5
 31
0.0
  0
LINE
  5
2D9
330
1E
100
AcDbEntity
  8
1
  6
Continuous
 62
     7
100
AcDbLine
 10
799.25
 20
1020.0
 30
0.0
 11
799.25
 21
1030.0
 31
0.0
  0
LINE
  5
2DA
330
1E
100
AcDbEntity
  8
1
  6
Continuous
 62
     7
100
AcDbLine
 10
799.25
 20
1030.0
 30
0.0
 11
808.75
 21
1030.0
 31
0.0
  0
LINE
  5
2DB
330
1E
100
AcDbEntity
  8
1
  6
Continuous
 62
     7
100
AcDbLine
 10
808.75
 20
1030.0
 30
0.0
 11
808.75
 21
1020.0
 31
0.0
  0
CIRCLE
  5
2DC
330
1E
100
AcDbEntity
  8
1
  6
Continuous
 62
     7
100
AcDbCircle
 10
804.0
 20
1025.5
 30
0.0
 40
1.0
  0
ARC
  5
2DD
330
1E
100
AcDbEntity
  8
1
  6
Continuous
 62
     7
100
AcDbCircle
 10
804.0
 20
1025.5
 30
0.0
 40
2.5
100
AcDbArc
 50
36.869898
 51
143.130102
  0
ARC
  5
2DE
330
1E
100
AcDbEntity
  8
1
  6
Continuous
 62
     7
100
AcDbCircle
 10
804.0
 20
1025.5
 30
0.0
 40
2.5
100
AcDbArc
 50
216.869898
 51
323.130102
  0
LINE
  5
2DF
330
1E
100
AcDbEntity
  8
1
  6
Continuous
 62
     7
100
AcDbLine
 10
802.0
 20
1027.0
 30
0.0
 11
802.0
 21
1024.0
 31
0.0
  0
LINE
  5
2E0
330
1E
100
AcDbEntity
  8
1
  6
Continuous
 62
     7
100
AcDbLine
 10
806.0
 20
1027.0
 30
0.0
 11
806.0
 21
1024.0
 31
0.0
  0
LINE
  5
2E1
330
1E
100
AcDbEntity
  8
1
  6
Continuous
 62
     7
100
AcDbLine
 10
819.25
 20
1020.0
 30
0.0
 11
819.25
 21
1030.0
 31
0.0
  0
LINE
  5
2E2
330
1E
100
AcDbEntity
  8
1
  6
Continuous
 62
     7
100
AcDbLine
 10
819.25
 20
1030.0
 30
0.0
 11
828.7499999999999
 21
1030.0
 31
0.0
  0
LINE
  5
2E3
330
1E
100
AcDbEntity
  8
1
  6
Continuous
 62
     7
100
AcDbLine
 10
828.7499999999999
 20
1030.0
 30
0.0
 11
828.7499999999999
 21
1020.0
 31
0.0
  0
CIRCLE
  5
2E4
330
1E
100
AcDbEntity
  8
1
  6
Continuous
 62
     7
100
AcDbCircle
 10
824.0
 20
1025.5
 30
0.0
 40
1.0
  0
ARC
  5
2E5
330
1E
100
AcDbEntity
  8
1
  6
Continuous
 62
     7
100
AcDbCircle
 10
824.0
 20
1025.5
 30
0.0
 40
2.5
100
AcDbArc
 50
36.869898
 51
143.130102
  0
ARC
  5
2E6
330
1E
100
AcDbEntity
  8
1
  6
Continuous
 62
     7
100
AcDbCircle
 10
824.0
 20
1025.5
 30
0.0
 40
2.5
100
AcDbArc
 50
216.869898
 51
323.130102
  0
LINE
  5
2E7
330
1E
100
AcDbEntity
  8
1
  6
Continuous
 62
     7
100
AcDbLine
 10
822.0
 20
1027.0
 30
0.0
 11
822.0
 21
1024.0
 31
0.0
  0
LINE
  5
2E8
330
1E
100
AcDbEntity
  8
1
  6
Continuous
 62
     7
100
AcDbLine
 10
826.0
 20
1027.0
 30
0.0
 11
826.0
 21
1024.0
 31
0.0
  0
LINE
  5
2E9
330
1E
100
AcDbEntity
  8
1
  6
Continuous
 62
     7
100
AcDbLine
 10
459.986073
 20
1195.842217999999
 30
0.0
 11
459.986073
 21
1185.327594
 31
0.0
  0
LINE
  5
2EA
330
1E
100
AcDbEntity
  8
1
  6
Continuous
 62
     7
100
AcDbLine
 10
459.986073
 20
1185.327594
 30
0.0
 11
480.0139269999998
 21
1185.327594
 31
0.0
  0
LINE
  5
2EB
330
1E
100
AcDbEntity
  8
1
  6
Continuous
 62
     7
100
AcDbLine
 10
480.0139269999998
 20
1185.327594
 30
0.0
 11
480.0139269999998
 21
1195.842217999999
 31
0.0
  0
LINE
  5
2EC
330
1E
100
AcDbEntity
  8
1
  6
Continuous
 62
     7
100
AcDbLine
 10
480.0139269999998
 20
1195.842217999999
 30
0.0
 11
459.986073
 21
1195.842217999999
 31
0.0
  0
ARC
  5
2ED
330
1E
100
AcDbEntity
  8
1
  6
Continuous
 62
     7
100
AcDbCircle
 10
464.367961
 20
1192.587690999999
 30
0.0
 40
1.502088999999999
100
AcDbArc
 50
90.0
 51
170.000001
  0
LINE
  5
2EE
330
1E
100
AcDbEntity
  8
1
  6
Continuous
 62
     7
100
AcDbLine
 10
464.367961
 20
1194.08978
 30
0.0
 11
475.6320389999998
 21
1194.08978
 31
0.0
  0
LINE
  5
2EF
330
1E
100
AcDbEntity
  8
1
  6
Continuous
 62
     7
100
AcDbLine
 10
462.182402
 20
1188.842955
 30
0.0
 11
462.888692
 21
1192.848526
 31
0.0
  0
ARC
  5
2F0
330
1E
100
AcDbEntity
  8
1
  6
Continuous
 62
     7
100
AcDbCircle
 10
463.661671
 20
1188.58212
 30
0.0
 40
1.502088999999999
100
AcDbArc
 50
170.000001
 51
270.0
  0
LINE
  5
2F1
330
1E
100
AcDbEntity
  8
1
  6
Continuous
 62
     7
100
AcDbLine
 10
476.338329
 20
1187.080031
 30
0.0
 11
463.661671
 21
1187.080031
 31
0.0
  0
ARC
  5
2F2
330
1E
100
AcDbEntity
  8
1
  6
Continuous
 62
     7
100
AcDbCircle
 10
476.338329
 20
1188.58212
 30
0.0
 40
1.502088999999999
100
AcDbArc
 50
270.0
 51
10.0
  0
LINE
  5
2F3
330
1E
100
AcDbEntity
  8
1
  6
Continuous
 62
     7
100
AcDbLine
 10
477.111308
 20
1192.848526
 30
0.0
 11
477.817598
 21
1188.842955
 31
0.0
  0
ARC
  5
2F4
330
1E
100
AcDbEntity
  8
1
  6
Continuous
 62
     7
100
AcDbCircle
 10
475.6320389999998
 20
1192.587690999999
 30
0.0
 40
1.502088999999999
100
AcDbArc
 50
10.0
 51
90.0
  0
CIRCLE
  5
2F5
330
1E
100
AcDbEntity
  8
1
  6
Continuous
 62
     7
100
AcDbCircle
 10
468.3477019999998
 20
1192.487552
 30
0.0
 40
0.5006960000000003
  0
CIRCLE
  5
2F6
330
1E
100
AcDbEntity
  8
1
  6
Continuous
 62
     7
100
AcDbCircle
 10
466.144638
 20
1192.487552
 30
0.0
 40
0.5006960000000003
  0
CIRCLE
  5
2F7
330
1E
100
AcDbEntity
  8
1
  6
Continuous
 62
     7
100
AcDbCircle
 10
466.144638
 20
1188.682259999999
 30
0.0
 40
0.5006960000000003
  0
CIRCLE
  5
2F8
330
1E
100
AcDbEntity
  8
1
  6
Continuous
 62
     7
100
AcDbCircle
 10
468.3477019999998
 20
1188.682259999999
 30
0.0
 40
0.5006960000000003
  0
CIRCLE
  5
2F9
330
1E
100
AcDbEntity
  8
1
  6
Continuous
 62
     7
100
AcDbCircle
 10
472.7538299999998
 20
1188.682259999999
 30
0.0
 40
0.5006960000000003
  0
CIRCLE
  5
2FA
330
1E
100
AcDbEntity
  8
1
  6
Continuous
 62
     7
100
AcDbCircle
 10
474.956894
 20
1188.682259999999
 30
0.0
 40
0.5006960000000003
  0
CIRCLE
  5
2FB
330
1E
100
AcDbEntity
  8
1
  6
Continuous
 62
     7
100
AcDbCircle
 10
474.956894
 20
1192.487552
 30
0.0
 40
0.5006960000000003
  0
CIRCLE
  5
2FC
330
1E
100
AcDbEntity
  8
1
  6
Continuous
 62
     7
100
AcDbCircle
 10
472.7538299999998
 20
1192.487552
 30
0.0
 40
0.5006960000000003
  0
CIRCLE
  5
2FD
330
1E
100
AcDbEntity
  8
1
  6
Continuous
 62
     7
100
AcDbCircle
 10
465.0431059999998
 20
1190.584906
 30
0.0
 40
0.5006960000000003
  0
CIRCLE
  5
2FE
330
1E
100
AcDbEntity
  8
1
  6
Continuous
 62
     7
100
AcDbCircle
 10
467.24617
 20
1190.584906
 30
0.0
 40
0.5006960000000003
  0
CIRCLE
  5
2FF
330
1E
100
AcDbEntity
  8
1
  6
Continuous
 62
     7
100
AcDbCircle
 10
473.855362
 20
1190.584906
 30
0.0
 40
0.5006960000000003
  0
CIRCLE
  5
300
330
1E
100
AcDbEntity
  8
1
  6
Continuous
 62
     7
100
AcDbCircle
 10
471.652298
 20
1190.584906
 30
0.0
 40
0.5006960000000003
  0
CIRCLE
  5
301
330
1E
100
AcDbEntity
  8
1
  6
Continuous
 62
     7
100
AcDbCircle
 10
469.449234
 20
1190.584906
 30
0.0
 40
0.5006960000000003
  0
CIRCLE
  5
302
330
1E
100
AcDbEntity
  8
1
  6
Continuous
 62
     7
100
AcDbCircle
 10
470.550766
 20
1188.682259999999
 30
0.0
 40
0.5006960000000003
  0
CIRCLE
  5
303
330
1E
100
AcDbEntity
  8
1
  6
Continuous
 62
     7
100
AcDbCircle
 10
470.550766
 20
1192.487552
 30
0.0
 40
0.5006960000000003
  0
ARC
  5
304
330
1E
100
AcDbEntity
  8
1
  6
Continuous
 62
     7
100
AcDbCircle
 10
463.669395
 20
1188.58212
 30
0.0
 40
2.002784999999998
100
AcDbArc
 50
170.0
 51
270.0
  0
LINE
  5
305
330
1E
100
AcDbEntity
  8
1
  6
Continuous
 62
     7
100
AcDbLine
 10
476.3306059999998
 20
1186.579335
 30
0.0
 11
463.669395
 21
1186.579335
 31
0.0
  0
LINE
  5
306
330
1E
100
AcDbEntity
  8
1
  6
Continuous
 62
     7
100
AcDbLine
 10
461.697036
 20
1188.9299
 30
0.0
 11
462.4033269999998
 21
1192.935470999999
 31
0.0
  0
ARC
  5
307
330
1E
100
AcDbEntity
  8
1
  6
Continuous
 62
     7
100
AcDbCircle
 10
464.3756849999999
 20
1192.587690999999
 30
0.0
 40
2.002784999999998
100
AcDbArc
 50
90.0
 51
170.0
  0
LINE
  5
308
330
1E
100
AcDbEntity
  8
1
  6
Continuous
 62
     7
100
AcDbLine
 10
464.3756849999999
 20
1194.590476999997
 30
0.0
 11
475.624316
 21
1194.590476999997
 31
0.0
  0
ARC
  5
309
330
1E
100
AcDbEntity
  8
1
  6
Continuous
 62
     7
100
AcDbCircle
 10
475.624316
 20
1192.587690999999
 30
0.0
 40
2.002784999999998
100
AcDbArc
 50
10.0
 51
90.0
  0
LINE
  5
30A
330
1E
100
AcDbEntity
  8
1
  6
Continuous
 62
     7
100
AcDbLine
 10
477.596674
 20
1192.935470999999
 30
0.0
 11
478.3029639999998
 21
1188.9299
 31
0.0
  0
ARC
  5
30B
330
1E
100
AcDbEntity
  8
1
  6
Continuous
 62
     7
100
AcDbCircle
 10
476.3306059999998
 20
1188.58212
 30
0.0
 40
2.002784999999998
100
AcDbArc
 50
270.0
 51
10.0
  0
CIRCLE
  5
30C
330
1E
100
AcDbEntity
  8
1
  6
Continuous
 62
     7
100
AcDbCircle
 10
457.2823119999998
 20
1190.584909
 30
0.0
 40
1.201670999999999
  0
LINE
  5
30D
330
1E
100
AcDbEntity
  8
1
  6
Continuous
 62
     7
100
AcDbLine
 10
458.5340509999999
 20
1188.416826999999
 30
0.0
 11
459.785794
 21
1190.584907
 31
0.0
  0
LINE
  5
30E
330
1E
100
AcDbEntity
  8
1
  6
Continuous
 62
     7
100
AcDbLine
 10
456.030571
 20
1188.416829
 30
0.0
 11
458.5340509999999
 21
1188.416826999999
 31
0.0
  0
LINE
  5
30F
330
1E
100
AcDbEntity
  8
1
  6
Continuous
 62
     7
100
AcDbLine
 10
454.7788309999998
 20
1190.584907
 30
0.0
 11
456.030571
 21
1188.416829
 31
0.0
  0
LINE
  5
310
330
1E
100
AcDbEntity
  8
1
  6
Continuous
 62
     7
100
AcDbLine
 10
456.0305699999998
 20
1192.752985
 30
0.0
 11
454.7788309999998
 21
1190.584907
 31
0.0
  0
LINE
  5
311
330
1E
100
AcDbEntity
  8
1
  6
Continuous
 62
     7
100
AcDbLine
 10
458.534053
 20
1192.752986
 30
0.0
 11
456.0305699999998
 21
1192.752985
 31
0.0
  0
LINE
  5
312
330
1E
100
AcDbEntity
  8
1
  6
Continuous
 62
     7
100
AcDbLine
 10
459.785794
 20
1190.584907
 30
0.0
 11
458.534053
 21
1192.752986
 31
0.0
  0
CIRCLE
  5
313
330
1E
100
AcDbEntity
  8
1
  6
Continuous
 62
     7
100
AcDbCircle
 10
482.717688
 20
1190.584908
 30
0.0
 40
1.201670999999999
  0
LINE
  5
314
330
1E
100
AcDbEntity
  8
1
  6
Continuous
 62
     7
100
AcDbLine
 10
483.9694259999998
 20
1188.416825999998
 30
0.0
 11
485.221169
 21
1190.584906
 31
0.0
  0
LINE
  5
315
330
1E
100
AcDbEntity
  8
1
  6
Continuous
 62
     7
100
AcDbLine
 10
481.4659459999998
 20
1188.416826999999
 30
0.0
 11
483.9694259999998
 21
1188.416825999998
 31
0.0
  0
LINE
  5
316
330
1E
100
AcDbEntity
  8
1
  6
Continuous
 62
     7
100
AcDbLine
 10
480.2142059999998
 20
1190.584906
 30
0.0
 11
481.4659459999998
 21
1188.416826999999
 31
0.0
  0
LINE
  5
317
330
1E
100
AcDbEntity
  8
1
  6
Continuous
 62
     7
100
AcDbLine
 10
481.465945
 20
1192.752983999999
 30
0.0
 11
480.2142059999998
 21
1190.584906
 31
0.0
  0
LINE
  5
318
330
1E
100
AcDbEntity
  8
1
  6
Continuous
 62
     7
100
AcDbLine
 10
483.969428
 20
1192.752985
 30
0.0
 11
481.465945
 21
1192.752983999999
 31
0.0
  0
LINE
  5
319
330
1E
100
AcDbEntity
  8
1
  6
Continuous
 62
     7
100
AcDbLine
 10
485.221169
 20
1190.584906
 30
0.0
 11
483.969428
 21
1192.752985
 31
0.0
  0
TEXT
  5
31A
330
1E
100
AcDbEntity
  8
1
  6
Continuous
 62
     7
100
AcDbText
 10
473.365882
 20
1183.828169999997
 30
0.0
 40
3.004178
  1
VGA
 50
180.0
 41
0.666667
  7
KANJI
100
AcDbText
  0
CIRCLE
  5
31B
330
1E
100
AcDbEntity
  8
1
  6
Continuous
 62
     7
100
AcDbCircle
 10
445.0
 20
1190.584906
 30
0.0
 40
6.5
  0
CIRCLE
  5
31C
330
1E
100
AcDbEntity
  8
1
  6
Continuous
 62
     7
100
AcDbCircle
 10
445.0
 20
1190.584906
 30
0.0
 40
4.5
  0
LINE
  5
31D
330
1E
100
AcDbEntity
  8
1
  6
Continuous
 62
     7
100
AcDbLine
 10
444.0
 20
1186.711923
 30
0.0
 11
444.0
 21
1187.584906
 31
0.0
  0
LINE
  5
31E
330
1E
100
AcDbEntity
  8
1
  6
Continuous
 62
     7
100
AcDbLine
 10
444.0
 20
1187.584906
 30
0.0
 11
446.0
 21
1187.584906
 31
0.0
  0
LINE
  5
31F
330
1E
100
AcDbEntity
  8
1
  6
Continuous
 62
     7
100
AcDbLine
 10
446.0
 20
1187.584906
 30
0.0
 11
446.0
 21
1186.711923
 31
0.0
  0
ARC
  5
320
330
1E
100
AcDbEntity
  8
1
  6
Continuous
 62
     7
100
AcDbCircle
 10
445.0
 20
1190.584906
 30
0.0
 40
4.0
100
AcDbArc
 50
41.40962199999999
 51
138.590378
  0
LINE
  5
321
330
1E
100
AcDbEntity
  8
1
  6
Continuous
 62
     7
100
AcDbLine
 10
442.0
 20
1193.230657
 30
0.0
 11
442.0
 21
1191.584906
 31
0.0
  0
LINE
  5
322
330
1E
100
AcDbEntity
  8
1
  6
Continuous
 62
     7
100
AcDbLine
 10
442.0
 20
1191.584906
 30
0.0
 11
441.1270169999998
 21
1191.584906
 31
0.0
  0
LINE
  5
323
330
1E
100
AcDbEntity
  8
1
  6
Continuous
 62
     7
100
AcDbLine
 10
448.0
 20
1193.230657
 30
0.0
 11
448.0
 21
1191.584906
 31
0.0
  0
LINE
  5
324
330
1E
100
AcDbEntity
  8
1
  6
Continuous
 62
     7
100
AcDbLine
 10
448.0
 20
1191.584906
 30
0.0
 11
448.872983
 21
1191.584906
 31
0.0
  0
ARC
  5
325
330
1E
100
AcDbEntity
  8
1
  6
Continuous
 62
     7
100
AcDbCircle
 10
445.0
 20
1190.584906
 30
0.0
 40
4.0
100
AcDbArc
 50
165.5224879999998
 51
255.522488
  0
ARC
  5
326
330
1E
100
AcDbEntity
  8
1
  6
Continuous
 62
     7
100
AcDbCircle
 10
445.0
 20
1190.584906
 30
0.0
 40
4.0
100
AcDbArc
 50
284.4775119999998
 51
14.47751199999999
  0
LINE
  5
327
330
1E
100
AcDbEntity
  8
1
  6
Continuous
 62
     7
100
AcDbLine
 10
443.0
 20
1191.584906
 30
0.0
 11
447.0
 21
1191.584906
 31
0.0
  0
LINE
  5
328
330
1E
100
AcDbEntity
  8
1
  6
Continuous
 62
     7
100
AcDbLine
 10
447.0
 20
1191.584906
 30
0.0
 11
447.0
 21
1193.084905999999
 31
0.0
  0
LINE
  5
329
330
1E
100
AcDbEntity
  8
1
  6
Continuous
 62
     7
100
AcDbLine
 10
447.0
 20
1193.084905999999
 30
0.0
 11
443.0
 21
1193.084905999999
 31
0.0
  0
LINE
  5
32A
330
1E
100
AcDbEntity
  8
1
  6
Continuous
 62
     7
100
AcDbLine
 10
443.0
 20
1193.084905999999
 30
0.0
 11
443.0
 21
1191.584906
 31
0.0
  0
CIRCLE
  5
32B
330
1E
100
AcDbEntity
  8
1
  6
Continuous
 62
     7
100
AcDbCircle
 10
448.0
 20
1190.584906
 30
0.0
 40
0.5
  0
CIRCLE
  5
32C
330
1E
100
AcDbEntity
  8
1
  6
Continuous
 62
     7
100
AcDbCircle
 10
442.0
 20
1190.584906
 30
0.0
 40
0.5
  0
CIRCLE
  5
32D
330
1E
100
AcDbEntity
  8
1
  6
Continuous
 62
     7
100
AcDbCircle
 10
443.0
 20
1188.348838
 30
0.0
 40
0.5
  0
CIRCLE
  5
32E
330
1E
100
AcDbEntity
  8
1
  6
Continuous
 62
     7
100
AcDbCircle
 10
447.0
 20
1188.348838
 30
0.0
 40
0.5
  0
ARC
  5
32F
330
1E
100
AcDbEntity
  8
1
  6
Continuous
 62
     7
100
AcDbCircle
 10
427.5067679999998
 20
1188.084906
 30
0.0
 40
2.0
100
AcDbArc
 50
270.0
 51
12.52880799999999
  0
LINE
  5
330
330
1E
100
AcDbEntity
  8
1
  6
Continuous
 62
     7
100
AcDbLine
 10
428.3480309999998
 20
1193.518767
 30
0.0
 11
429.4591419999998
 21
1188.518767
 31
0.0
  0
ARC
  5
331
330
1E
100
AcDbEntity
  8
1
  6
Continuous
 62
     7
100
AcDbCircle
 10
426.395657
 20
1193.084905999999
 30
0.0
 40
2.0
100
AcDbArc
 50
12.52880799999999
 51
90.0
  0
LINE
  5
332
330
1E
100
AcDbEntity
  8
1
  6
Continuous
 62
     7
100
AcDbLine
 10
413.6043429999999
 20
1195.084906
 30
0.0
 11
426.395657
 21
1195.084906
 31
0.0
  0
ARC
  5
333
330
1E
100
AcDbEntity
  8
1
  6
Continuous
 62
     7
100
AcDbCircle
 10
413.6043429999999
 20
1193.084905999999
 30
0.0
 40
2.0
100
AcDbArc
 50
90.0
 51
167.471192
  0
LINE
  5
334
330
1E
100
AcDbEntity
  8
1
  6
Continuous
 62
     7
100
AcDbLine
 10
410.540858
 20
1188.518767
 30
0.0
 11
411.651969
 21
1193.518767
 31
0.0
  0
LINE
  5
335
330
1E
100
AcDbEntity
  8
1
  6
Continuous
 62
     7
100
AcDbLine
 10
427.5067679999998
 20
1186.084906
 30
0.0
 11
412.493232
 21
1186.084906
 31
0.0
  0
ARC
  5
336
330
1E
100
AcDbEntity
  8
1
  6
Continuous
 62
     7
100
AcDbCircle
 10
412.493232
 20
1188.084906
 30
0.0
 40
2.0
100
AcDbArc
 50
167.471192
 51
270.0
  0
CIRCLE
  5
337
330
1E
100
AcDbEntity
  8
1
  6
Continuous
 62
     7
100
AcDbCircle
 10
432.5
 20
1190.584908
 30
0.0
 40
1.201670999999999
  0
LINE
  5
338
330
1E
100
AcDbEntity
  8
1
  6
Continuous
 62
     7
100
AcDbLine
 10
433.751739
 20
1188.416825999998
 30
0.0
 11
435.003482
 21
1190.584906
 31
0.0
  0
LINE
  5
339
330
1E
100
AcDbEntity
  8
1
  6
Continuous
 62
     7
100
AcDbLine
 10
431.248259
 20
1188.416826999999
 30
0.0
 11
433.751739
 21
1188.416825999998
 31
0.0
  0
LINE
  5
33A
330
1E
100
AcDbEntity
  8
1
  6
Continuous
 62
     7
100
AcDbLine
 10
429.996518
 20
1190.584906
 30
0.0
 11
431.248259
 21
1188.416826999999
 31
0.0
  0
LINE
  5
33B
330
1E
100
AcDbEntity
  8
1
  6
Continuous
 62
     7
100
AcDbLine
 10
431.248257
 20
1192.752983999999
 30
0.0
 11
429.996518
 21
1190.584906
 31
0.0
  0
LINE
  5
33C
330
1E
100
AcDbEntity
  8
1
  6
Continuous
 62
     7
100
AcDbLine
 10
433.75174
 20
1192.752985
 30
0.0
 11
431.248257
 21
1192.752983999999
 31
0.0
  0
LINE
  5
33D
330
1E
100
AcDbEntity
  8
1
  6
Continuous
 62
     7
100
AcDbLine
 10
435.003482
 20
1190.584906
 30
0.0
 11
433.75174
 21
1192.752985
 31
0.0
  0
CIRCLE
  5
33E
330
1E
100
AcDbEntity
  8
1
  6
Continuous
 62
     7
100
AcDbCircle
 10
407.5
 20
1190.584908
 30
0.0
 40
1.201670999999999
  0
LINE
  5
33F
330
1E
100
AcDbEntity
  8
1
  6
Continuous
 62
     7
100
AcDbLine
 10
408.751739
 20
1188.416825999998
 30
0.0
 11
410.0034819999998
 21
1190.584906
 31
0.0
  0
LINE
  5
340
330
1E
100
AcDbEntity
  8
1
  6
Continuous
 62
     7
100
AcDbLine
 10
406.248259
 20
1188.416826999999
 30
0.0
 11
408.751739
 21
1188.416825999998
 31
0.0
  0
LINE
  5
341
330
1E
100
AcDbEntity
  8
1
  6
Continuous
 62
     7
100
AcDbLine
 10
404.996518
 20
1190.584906
 30
0.0
 11
406.248259
 21
1188.416826999999
 31
0.0
  0
LINE
  5
342
330
1E
100
AcDbEntity
  8
1
  6
Continuous
 62
     7
100
AcDbLine
 10
406.2482569999998
 20
1192.752983999999
 30
0.0
 11
404.996518
 21
1190.584906
 31
0.0
  0
LINE
  5
343
330
1E
100
AcDbEntity
  8
1
  6
Continuous
 62
     7
100
AcDbLine
 10
408.75174
 20
1192.752985
 30
0.0
 11
406.2482569999998
 21
1192.752983999999
 31
0.0
  0
LINE
  5
344
330
1E
100
AcDbEntity
  8
1
  6
Continuous
 62
     7
100
AcDbLine
 10
410.0034819999998
 20
1190.584906
 30
0.0
 11
408.75174
 21
1192.752985
 31
0.0
  0
CIRCLE
  5
345
330
1E
100
AcDbEntity
  8
1
  6
Continuous
 62
     7
100
AcDbCircle
 10
415.7973859999998
 20
1192.086994999999
 30
0.0
 40
0.8011139999999999
  0
CIRCLE
  5
346
330
1E
100
AcDbEntity
  8
1
  6
Continuous
 62
     7
100
AcDbCircle
 10
418.599128
 20
1192.086992999999
 30
0.0
 40
0.8011139999999999
  0
CIRCLE
  5
347
330
1E
100
AcDbEntity
  8
1
  6
Continuous
 62
     7
100
AcDbCircle
 10
421.4008709999998
 20
1192.086994999999
 30
0.0
 40
0.8011139999999999
  0
CIRCLE
  5
348
330
1E
100
AcDbEntity
  8
1
  6
Continuous
 62
     7
100
AcDbCircle
 10
424.202615
 20
1192.086994999999
 30
0.0
 40
0.8011139999999999
  0
CIRCLE
  5
349
330
1E
100
AcDbEntity
  8
1
  6
Continuous
 62
     7
100
AcDbCircle
 10
425.603486
 20
1189.082817
 30
0.0
 40
0.8011139999999999
  0
CIRCLE
  5
34A
330
1E
100
AcDbEntity
  8
1
  6
Continuous
 62
     7
100
AcDbCircle
 10
422.8017429999998
 20
1189.082817
 30
0.0
 40
0.8011139999999999
  0
CIRCLE
  5
34B
330
1E
100
AcDbEntity
  8
1
  6
Continuous
 62
     7
100
AcDbCircle
 10
419.999999
 20
1189.082817
 30
0.0
 40
0.8011139999999999
  0
CIRCLE
  5
34C
330
1E
100
AcDbEntity
  8
1
  6
Continuous
 62
     7
100
AcDbCircle
 10
417.1982569999998
 20
1189.082816
 30
0.0
 40
0.8011139999999999
  0
CIRCLE
  5
34D
330
1E
100
AcDbEntity
  8
1
  6
Continuous
 62
     7
100
AcDbCircle
 10
414.396514
 20
1189.082817
 30
0.0
 40
0.8011139999999999
  0
LINE
  5
34E
330
1E
100
AcDbEntity
  8
1
  6
Continuous
 62
     7
100
AcDbLine
 10
382.5
 20
1197.584906
 30
0.0
 11
382.5
 21
1166.584906
 31
0.0
  0
LINE
  5
34F
330
1E
100
AcDbEntity
  8
1
  6
Continuous
 62
     7
100
AcDbLine
 10
382.5
 20
1166.584906
 30
0.0
 11
401.4999999999998
 21
1166.584906
 31
0.0
  0
LINE
  5
350
330
1E
100
AcDbEntity
  8
1
  6
Continuous
 62
     7
100
AcDbLine
 10
401.4999999999998
 20
1166.584906
 30
0.0
 11
401.4999999999998
 21
1197.584906
 31
0.0
  0
LINE
  5
351
330
1E
100
AcDbEntity
  8
1
  6
Continuous
 62
     7
100
AcDbLine
 10
401.4999999999998
 20
1197.584906
 30
0.0
 11
382.5
 21
1197.584906
 31
0.0
  0
LINE
  5
352
330
1E
100
AcDbEntity
  8
1
  6
Continuous
 62
     7
100
AcDbLine
 10
397.1860279999998
 20
1168.822016
 30
0.0
 11
397.1860279999998
 21
1178.177203999998
 31
0.0
  0
LINE
  5
353
330
1E
100
AcDbEntity
  8
1
  6
Continuous
 62
     7
100
AcDbLine
 10
386.610598
 20
1178.177203999998
 30
0.0
 11
386.610598
 21
1168.822016
 31
0.0
  0
LINE
  5
354
330
1E
100
AcDbEntity
  8
1
  6
Continuous
 62
     7
100
AcDbLine
 10
390.243264
 20
1168.779135
 30
0.0
 11
386.547982
 21
1168.779135
 31
0.0
  0
LINE
  5
355
330
1E
100
AcDbEntity
  8
1
  6
Continuous
 62
     7
100
AcDbLine
 10
397.2543379999998
 20
1168.969531999999
 30
0.0
 11
393.560292
 21
1168.969531999999
 31
0.0
  0
LINE
  5
356
330
1E
100
AcDbEntity
  8
1
  6
Continuous
 62
     7
100
AcDbLine
 10
393.6562009999998
 20
1168.969531999999
 30
0.0
 11
393.6562009999998
 21
1166.736425999999
 31
0.0
  0
LINE
  5
357
330
1E
100
AcDbEntity
  8
1
  6
Continuous
 62
     7
100
AcDbLine
 10
390.243264
 20
1169.058511
 30
0.0
 11
390.243264
 21
1166.584906
 31
0.0
  0
LINE
  5
358
330
1E
100
AcDbEntity
  8
1
  6
Continuous
 62
     7
100
AcDbLine
 10
386.5154
 20
1178.181038
 30
0.0
 11
397.0908299999998
 21
1178.181038
 31
0.0
  0
LINE
  5
359
330
1E
100
AcDbEntity
  8
1
  6
Continuous
 62
     7
100
AcDbLine
 10
384.0
 20
1187.584906
 30
0.0
 11
384.0
 21
1183.584906
 31
0.0
  0
LINE
  5
35A
330
1E
100
AcDbEntity
  8
1
  6
Continuous
 62
     7
100
AcDbLine
 10
384.0
 20
1183.584906
 30
0.0
 11
400.0
 21
1183.584906
 31
0.0
  0
LINE
  5
35B
330
1E
100
AcDbEntity
  8
1
  6
Continuous
 62
     7
100
AcDbLine
 10
400.0
 20
1183.584906
 30
0.0
 11
400.0
 21
1187.584906
 31
0.0
  0
LINE
  5
35C
330
1E
100
AcDbEntity
  8
1
  6
Continuous
 62
     7
100
AcDbLine
 10
400.0
 20
1187.584906
 30
0.0
 11
384.0
 21
1187.584906
 31
0.0
  0
LINE
  5
35D
330
1E
100
AcDbEntity
  8
1
  6
Continuous
 62
     7
100
AcDbLine
 10
384.0
 20
1195.584906
 30
0.0
 11
384.0
 21
1191.584906
 31
0.0
  0
LINE
  5
35E
330
1E
100
AcDbEntity
  8
1
  6
Continuous
 62
     7
100
AcDbLine
 10
384.0
 20
1191.584906
 30
0.0
 11
400.0
 21
1191.584906
 31
0.0
  0
LINE
  5
35F
330
1E
100
AcDbEntity
  8
1
  6
Continuous
 62
     7
100
AcDbLine
 10
400.0
 20
1191.584906
 30
0.0
 11
400.0
 21
1195.584906
 31
0.0
  0
LINE
  5
360
330
1E
100
AcDbEntity
  8
1
  6
Continuous
 62
     7
100
AcDbLine
 10
400.0
 20
1195.584906
 30
0.0
 11
384.0
 21
1195.584906
 31
0.0
  0
LINE
  5
361
330
1E
100
AcDbEntity
  8
1
  6
Continuous
 62
     7
100
AcDbLine
 10
368.4499999999998
 20
1189.084906
 30
0.0
 11
368.4499999999998
 21
1184.584906
 31
0.0
  0
LINE
  5
362
330
1E
100
AcDbEntity
  8
1
  6
Continuous
 62
     7
100
AcDbLine
 10
368.4499999999998
 20
1184.584906
 30
0.0
 11
370.4499999999999
 21
1184.584906
 31
0.0
  0
LINE
  5
363
330
1E
100
AcDbEntity
  8
1
  6
Continuous
 62
     7
100
AcDbLine
 10
370.4499999999999
 20
1184.584906
 30
0.0
 11
370.4499999999999
 21
1189.084906
 31
0.0
  0
LINE
  5
364
330
1E
100
AcDbEntity
  8
1
  6
Continuous
 62
     7
100
AcDbLine
 10
370.4499999999999
 20
1189.084906
 30
0.0
 11
368.4499999999998
 21
1189.084906
 31
0.0
  0
LINE
  5
365
330
1E
100
AcDbEntity
  8
1
  6
Continuous
 62
     7
100
AcDbLine
 10
368.9499999999998
 20
1188.584905999998
 30
0.0
 11
368.9499999999998
 21
1185.084905999999
 31
0.0
  0
LINE
  5
366
330
1E
100
AcDbEntity
  8
1
  6
Continuous
 62
     7
100
AcDbLine
 10
368.9499999999998
 20
1185.084905999999
 30
0.0
 11
369.95
 21
1185.084905999999
 31
0.0
  0
LINE
  5
367
330
1E
100
AcDbEntity
  8
1
  6
Continuous
 62
     7
100
AcDbLine
 10
369.95
 20
1185.084905999999
 30
0.0
 11
369.95
 21
1188.584905999998
 31
0.0
  0
LINE
  5
368
330
1E
100
AcDbEntity
  8
1
  6
Continuous
 62
     7
100
AcDbLine
 10
369.95
 20
1188.584905999998
 30
0.0
 11
368.9499999999998
 21
1188.584905999998
 31
0.0
  0
ARC
  5
369
330
1E
100
AcDbEntity
  8
1
  6
Continuous
 62
     7
100
AcDbCircle
 10
369.45
 20
1190.084906
 30
0.0
 40
1.0
100
AcDbArc
 50
180.0
 51
0.0
  0
ARC
  5
36A
330
1E
100
AcDbEntity
  8
1
  6
Continuous
 62
     7
100
AcDbCircle
 10
369.45
 20
1190.584906
 30
0.0
 40
1.0
100
AcDbArc
 50
0.0
 51
180.0
  0
LINE
  5
36B
330
1E
100
AcDbEntity
  8
1
  6
Continuous
 62
     7
100
AcDbLine
 10
368.4499999999998
 20
1190.584906
 30
0.0
 11
368.4499999999998
 21
1190.084906
 31
0.0
  0
LINE
  5
36C
330
1E
100
AcDbEntity
  8
1
  6
Continuous
 62
     7
100
AcDbLine
 10
370.4499999999999
 20
1190.584906
 30
0.0
 11
370.4499999999999
 21
1190.084906
 31
0.0
  0
CIRCLE
  5
36D
330
1E
100
AcDbEntity
  8
1
  6
Continuous
 62
     7
100
AcDbCircle
 10
369.45
 20
1190.334906
 30
0.0
 40
1.0
  0
LINE
  5
36E
330
1E
100
AcDbEntity
  8
1
  6
Continuous
 62
     7
100
AcDbLine
 10
365.75
 20
1189.084906
 30
0.0
 11
365.75
 21
1184.584906
 31
0.0
  0
LINE
  5
36F
330
1E
100
AcDbEntity
  8
1
  6
Continuous
 62
     7
100
AcDbLine
 10
365.75
 20
1184.584906
 30
0.0
 11
367.75
 21
1184.584906
 31
0.0
  0
LINE
  5
370
330
1E
100
AcDbEntity
  8
1
  6
Continuous
 62
     7
100
AcDbLine
 10
367.75
 20
1184.584906
 30
0.0
 11
367.75
 21
1189.084906
 31
0.0
  0
LINE
  5
371
330
1E
100
AcDbEntity
  8
1
  6
Continuous
 62
     7
100
AcDbLine
 10
367.75
 20
1189.084906
 30
0.0
 11
365.75
 21
1189.084906
 31
0.0
  0
LINE
  5
372
330
1E
100
AcDbEntity
  8
1
  6
Continuous
 62
     7
100
AcDbLine
 10
366.25
 20
1188.584905999998
 30
0.0
 11
366.25
 21
1185.084905999999
 31
0.0
  0
LINE
  5
373
330
1E
100
AcDbEntity
  8
1
  6
Continuous
 62
     7
100
AcDbLine
 10
366.25
 20
1185.084905999999
 30
0.0
 11
367.2499999999998
 21
1185.084905999999
 31
0.0
  0
LINE
  5
374
330
1E
100
AcDbEntity
  8
1
  6
Continuous
 62
     7
100
AcDbLine
 10
367.2499999999998
 20
1185.084905999999
 30
0.0
 11
367.2499999999998
 21
1188.584905999998
 31
0.0
  0
LINE
  5
375
330
1E
100
AcDbEntity
  8
1
  6
Continuous
 62
     7
100
AcDbLine
 10
367.2499999999998
 20
1188.584905999998
 30
0.0
 11
366.25
 21
1188.584905999998
 31
0.0
  0
ARC
  5
376
330
1E
100
AcDbEntity
  8
1
  6
Continuous
 62
     7
100
AcDbCircle
 10
366.7499999999998
 20
1190.084906
 30
0.0
 40
1.0
100
AcDbArc
 50
180.0
 51
0.0
  0
ARC
  5
377
330
1E
100
AcDbEntity
  8
1
  6
Continuous
 62
     7
100
AcDbCircle
 10
366.7499999999998
 20
1190.584906
 30
0.0
 40
1.0
100
AcDbArc
 50
0.0
 51
180.0
  0
LINE
  5
378
330
1E
100
AcDbEntity
  8
1
  6
Continuous
 62
     7
100
AcDbLine
 10
365.75
 20
1190.584906
 30
0.0
 11
365.75
 21
1190.084906
 31
0.0
  0
LINE
  5
379
330
1E
100
AcDbEntity
  8
1
  6
Continuous
 62
     7
100
AcDbLine
 10
367.75
 20
1190.584906
 30
0.0
 11
367.75
 21
1190.084906
 31
0.0
  0
CIRCLE
  5
37A
330
1E
100
AcDbEntity
  8
1
  6
Continuous
 62
     7
100
AcDbCircle
 10
366.7499999999998
 20
1190.334906
 30
0.0
 40
1.0
  0
LINE
  5
37B
330
1E
100
AcDbEntity
  8
1
  6
Continuous
 62
     7
100
AcDbLine
 10
363.05
 20
1189.084906
 30
0.0
 11
363.05
 21
1184.584906
 31
0.0
  0
LINE
  5
37C
330
1E
100
AcDbEntity
  8
1
  6
Continuous
 62
     7
100
AcDbLine
 10
363.05
 20
1184.584906
 30
0.0
 11
365.05
 21
1184.584906
 31
0.0
  0
LINE
  5
37D
330
1E
100
AcDbEntity
  8
1
  6
Continuous
 62
     7
100
AcDbLine
 10
365.05
 20
1184.584906
 30
0.0
 11
365.05
 21
1189.084906
 31
0.0
  0
LINE
  5
37E
330
1E
100
AcDbEntity
  8
1
  6
Continuous
 62
     7
100
AcDbLine
 10
365.05
 20
1189.084906
 30
0.0
 11
363.05
 21
1189.084906
 31
0.0
  0
LINE
  5
37F
330
1E
100
AcDbEntity
  8
1
  6
Continuous
 62
     7
100
AcDbLine
 10
363.55
 20
1188.584905999998
 30
0.0
 11
363.55
 21
1185.084905999999
 31
0.0
  0
LINE
  5
380
330
1E
100
AcDbEntity
  8
1
  6
Continuous
 62
     7
100
AcDbLine
 10
363.55
 20
1185.084905999999
 30
0.0
 11
364.55
 21
1185.084905999999
 31
0.0
  0
LINE
  5
381
330
1E
100
AcDbEntity
  8
1
  6
Continuous
 62
     7
100
AcDbLine
 10
364.55
 20
1185.084905999999
 30
0.0
 11
364.55
 21
1188.584905999998
 31
0.0
  0
LINE
  5
382
330
1E
100
AcDbEntity
  8
1
  6
Continuous
 62
     7
100
AcDbLine
 10
364.55
 20
1188.584905999998
 30
0.0
 11
363.55
 21
1188.584905999998
 31
0.0
  0
ARC
  5
383
330
1E
100
AcDbEntity
  8
1
  6
Continuous
 62
     7
100
AcDbCircle
 10
364.05
 20
1190.084906
 30
0.0
 40
1.0
100
AcDbArc
 50
180.0
 51
0.0
  0
ARC
  5
384
330
1E
100
AcDbEntity
  8
1
  6
Continuous
 62
     7
100
AcDbCircle
 10
364.05
 20
1190.584906
 30
0.0
 40
1.0
100
AcDbArc
 50
0.0
 51
180.0
  0
LINE
  5
385
330
1E
100
AcDbEntity
  8
1
  6
Continuous
 62
     7
100
AcDbLine
 10
363.05
 20
1190.584906
 30
0.0
 11
363.05
 21
1190.084906
 31
0.0
  0
LINE
  5
386
330
1E
100
AcDbEntity
  8
1
  6
Continuous
 62
     7
100
AcDbLine
 10
365.05
 20
1190.584906
 30
0.0
 11
365.05
 21
1190.084906
 31
0.0
  0
CIRCLE
  5
387
330
1E
100
AcDbEntity
  8
1
  6
Continuous
 62
     7
100
AcDbCircle
 10
364.05
 20
1190.334906
 30
0.0
 40
1.0
  0
LINE
  5
388
330
1E
100
AcDbEntity
  8
1
  6
Continuous
 62
     7
100
AcDbLine
 10
360.35
 20
1189.084906
 30
0.0
 11
360.35
 21
1184.584906
 31
0.0
  0
LINE
  5
389
330
1E
100
AcDbEntity
  8
1
  6
Continuous
 62
     7
100
AcDbLine
 10
360.35
 20
1184.584906
 30
0.0
 11
362.35
 21
1184.584906
 31
0.0
  0
LINE
  5
38A
330
1E
100
AcDbEntity
  8
1
  6
Continuous
 62
     7
100
AcDbLine
 10
362.35
 20
1184.584906
 30
0.0
 11
362.35
 21
1189.084906
 31
0.0
  0
LINE
  5
38B
330
1E
100
AcDbEntity
  8
1
  6
Continuous
 62
     7
100
AcDbLine
 10
362.35
 20
1189.084906
 30
0.0
 11
360.35
 21
1189.084906
 31
0.0
  0
LINE
  5
38C
330
1E
100
AcDbEntity
  8
1
  6
Continuous
 62
     7
100
AcDbLine
 10
360.85
 20
1188.584905999998
 30
0.0
 11
360.85
 21
1185.084905999999
 31
0.0
  0
LINE
  5
38D
330
1E
100
AcDbEntity
  8
1
  6
Continuous
 62
     7
100
AcDbLine
 10
360.85
 20
1185.084905999999
 30
0.0
 11
361.85
 21
1185.084905999999
 31
0.0
  0
LINE
  5
38E
330
1E
100
AcDbEntity
  8
1
  6
Continuous
 62
     7
100
AcDbLine
 10
361.85
 20
1185.084905999999
 30
0.0
 11
361.85
 21
1188.584905999998
 31
0.0
  0
LINE
  5
38F
330
1E
100
AcDbEntity
  8
1
  6
Continuous
 62
     7
100
AcDbLine
 10
361.85
 20
1188.584905999998
 30
0.0
 11
360.85
 21
1188.584905999998
 31
0.0
  0
ARC
  5
390
330
1E
100
AcDbEntity
  8
1
  6
Continuous
 62
     7
100
AcDbCircle
 10
361.35
 20
1190.084906
 30
0.0
 40
1.0
100
AcDbArc
 50
180.0
 51
0.0
  0
ARC
  5
391
330
1E
100
AcDbEntity
  8
1
  6
Continuous
 62
     7
100
AcDbCircle
 10
361.35
 20
1190.584906
 30
0.0
 40
1.0
100
AcDbArc
 50
0.0
 51
180.0
  0
LINE
  5
392
330
1E
100
AcDbEntity
  8
1
  6
Continuous
 62
     7
100
AcDbLine
 10
360.35
 20
1190.584906
 30
0.0
 11
360.35
 21
1190.084906
 31
0.0
  0
LINE
  5
393
330
1E
100
AcDbEntity
  8
1
  6
Continuous
 62
     7
100
AcDbLine
 10
362.35
 20
1190.584906
 30
0.0
 11
362.35
 21
1190.084906
 31
0.0
  0
CIRCLE
  5
394
330
1E
100
AcDbEntity
  8
1
  6
Continuous
 62
     7
100
AcDbCircle
 10
361.35
 20
1190.334906
 30
0.0
 40
1.0
  0
LINE
  5
395
330
1E
100
AcDbEntity
  8
1
  6
Continuous
 62
     7
100
AcDbLine
 10
357.6499999999998
 20
1189.084906
 30
0.0
 11
357.6499999999998
 21
1184.584906
 31
0.0
  0
LINE
  5
396
330
1E
100
AcDbEntity
  8
1
  6
Continuous
 62
     7
100
AcDbLine
 10
357.6499999999998
 20
1184.584906
 30
0.0
 11
359.6499999999998
 21
1184.584906
 31
0.0
  0
LINE
  5
397
330
1E
100
AcDbEntity
  8
1
  6
Continuous
 62
     7
100
AcDbLine
 10
359.6499999999998
 20
1184.584906
 30
0.0
 11
359.6499999999998
 21
1189.084906
 31
0.0
  0
LINE
  5
398
330
1E
100
AcDbEntity
  8
1
  6
Continuous
 62
     7
100
AcDbLine
 10
359.6499999999998
 20
1189.084906
 30
0.0
 11
357.6499999999998
 21
1189.084906
 31
0.0
  0
LINE
  5
399
330
1E
100
AcDbEntity
  8
1
  6
Continuous
 62
     7
100
AcDbLine
 10
358.1499999999998
 20
1188.584905999998
 30
0.0
 11
358.1499999999998
 21
1185.084905999999
 31
0.0
  0
LINE
  5
39A
330
1E
100
AcDbEntity
  8
1
  6
Continuous
 62
     7
100
AcDbLine
 10
358.1499999999998
 20
1185.084905999999
 30
0.0
 11
359.1499999999998
 21
1185.084905999999
 31
0.0
  0
LINE
  5
39B
330
1E
100
AcDbEntity
  8
1
  6
Continuous
 62
     7
100
AcDbLine
 10
359.1499999999998
 20
1185.084905999999
 30
0.0
 11
359.1499999999998
 21
1188.584905999998
 31
0.0
  0
LINE
  5
39C
330
1E
100
AcDbEntity
  8
1
  6
Continuous
 62
     7
100
AcDbLine
 10
359.1499999999998
 20
1188.584905999998
 30
0.0
 11
358.1499999999998
 21
1188.584905999998
 31
0.0
  0
ARC
  5
39D
330
1E
100
AcDbEntity
  8
1
  6
Continuous
 62
     7
100
AcDbCircle
 10
358.65
 20
1190.084906
 30
0.0
 40
1.0
100
AcDbArc
 50
180.0
 51
0.0
  0
ARC
  5
39E
330
1E
100
AcDbEntity
  8
1
  6
Continuous
 62
     7
100
AcDbCircle
 10
358.65
 20
1190.584906
 30
0.0
 40
1.0
100
AcDbArc
 50
0.0
 51
180.0
  0
LINE
  5
39F
330
1E
100
AcDbEntity
  8
1
  6
Continuous
 62
     7
100
AcDbLine
 10
357.6499999999998
 20
1190.584906
 30
0.0
 11
357.6499999999998
 21
1190.084906
 31
0.0
  0
LINE
  5
3A0
330
1E
100
AcDbEntity
  8
1
  6
Continuous
 62
     7
100
AcDbLine
 10
359.6499999999998
 20
1190.584906
 30
0.0
 11
359.6499999999998
 21
1190.084906
 31
0.0
  0
CIRCLE
  5
3A1
330
1E
100
AcDbEntity
  8
1
  6
Continuous
 62
     7
100
AcDbCircle
 10
358.65
 20
1190.334906
 30
0.0
 40
1.0
  0
LINE
  5
3A2
330
1E
100
AcDbEntity
  8
1
  6
Continuous
 62
     7
100
AcDbLine
 10
354.95
 20
1189.084906
 30
0.0
 11
354.95
 21
1184.584906
 31
0.0
  0
LINE
  5
3A3
330
1E
100
AcDbEntity
  8
1
  6
Continuous
 62
     7
100
AcDbLine
 10
354.95
 20
1184.584906
 30
0.0
 11
356.95
 21
1184.584906
 31
0.0
  0
LINE
  5
3A4
330
1E
100
AcDbEntity
  8
1
  6
Continuous
 62
     7
100
AcDbLine
 10
356.95
 20
1184.584906
 30
0.0
 11
356.95
 21
1189.084906
 31
0.0
  0
LINE
  5
3A5
330
1E
100
AcDbEntity
  8
1
  6
Continuous
 62
     7
100
AcDbLine
 10
356.95
 20
1189.084906
 30
0.0
 11
354.95
 21
1189.084906
 31
0.0
  0
LINE
  5
3A6
330
1E
100
AcDbEntity
  8
1
  6
Continuous
 62
     7
100
AcDbLine
 10
355.4499999999998
 20
1188.584905999998
 30
0.0
 11
355.4499999999998
 21
1185.084905999999
 31
0.0
  0
LINE
  5
3A7
330
1E
100
AcDbEntity
  8
1
  6
Continuous
 62
     7
100
AcDbLine
 10
355.4499999999998
 20
1185.084905999999
 30
0.0
 11
356.4499999999998
 21
1185.084905999999
 31
0.0
  0
LINE
  5
3A8
330
1E
100
AcDbEntity
  8
1
  6
Continuous
 62
     7
100
AcDbLine
 10
356.4499999999998
 20
1185.084905999999
 30
0.0
 11
356.4499999999998
 21
1188.584905999998
 31
0.0
  0
LINE
  5
3A9
330
1E
100
AcDbEntity
  8
1
  6
Continuous
 62
     7
100
AcDbLine
 10
356.4499999999998
 20
1188.584905999998
 30
0.0
 11
355.4499999999998
 21
1188.584905999998
 31
0.0
  0
ARC
  5
3AA
330
1E
100
AcDbEntity
  8
1
  6
Continuous
 62
     7
100
AcDbCircle
 10
355.9499999999998
 20
1190.084906
 30
0.0
 40
1.0
100
AcDbArc
 50
180.0
 51
0.0
  0
ARC
  5
3AB
330
1E
100
AcDbEntity
  8
1
  6
Continuous
 62
     7
100
AcDbCircle
 10
355.9499999999998
 20
1190.584906
 30
0.0
 40
1.0
100
AcDbArc
 50
0.0
 51
180.0
  0
LINE
  5
3AC
330
1E
100
AcDbEntity
  8
1
  6
Continuous
 62
     7
100
AcDbLine
 10
354.95
 20
1190.584906
 30
0.0
 11
354.95
 21
1190.084906
 31
0.0
  0
LINE
  5
3AD
330
1E
100
AcDbEntity
  8
1
  6
Continuous
 62
     7
100
AcDbLine
 10
356.95
 20
1190.584906
 30
0.0
 11
356.95
 21
1190.084906
 31
0.0
  0
CIRCLE
  5
3AE
330
1E
100
AcDbEntity
  8
1
  6
Continuous
 62
     7
100
AcDbCircle
 10
355.9499999999998
 20
1190.334906
 30
0.0
 40
1.0
  0
LINE
  5
3AF
330
1E
100
AcDbEntity
  8
1
  6
Continuous
 62
     7
100
AcDbLine
 10
352.2499999999998
 20
1189.084906
 30
0.0
 11
352.2499999999998
 21
1184.584906
 31
0.0
  0
LINE
  5
3B0
330
1E
100
AcDbEntity
  8
1
  6
Continuous
 62
     7
100
AcDbLine
 10
352.2499999999998
 20
1184.584906
 30
0.0
 11
354.2499999999998
 21
1184.584906
 31
0.0
  0
LINE
  5
3B1
330
1E
100
AcDbEntity
  8
1
  6
Continuous
 62
     7
100
AcDbLine
 10
354.2499999999998
 20
1184.584906
 30
0.0
 11
354.2499999999998
 21
1189.084906
 31
0.0
  0
LINE
  5
3B2
330
1E
100
AcDbEntity
  8
1
  6
Continuous
 62
     7
100
AcDbLine
 10
354.2499999999998
 20
1189.084906
 30
0.0
 11
352.2499999999998
 21
1189.084906
 31
0.0
  0
LINE
  5
3B3
330
1E
100
AcDbEntity
  8
1
  6
Continuous
 62
     7
100
AcDbLine
 10
352.7499999999998
 20
1188.584905999998
 30
0.0
 11
352.7499999999998
 21
1185.084905999999
 31
0.0
  0
LINE
  5
3B4
330
1E
100
AcDbEntity
  8
1
  6
Continuous
 62
     7
100
AcDbLine
 10
352.7499999999998
 20
1185.084905999999
 30
0.0
 11
353.75
 21
1185.084905999999
 31
0.0
  0
LINE
  5
3B5
330
1E
100
AcDbEntity
  8
1
  6
Continuous
 62
     7
100
AcDbLine
 10
353.75
 20
1185.084905999999
 30
0.0
 11
353.75
 21
1188.584905999998
 31
0.0
  0
LINE
  5
3B6
330
1E
100
AcDbEntity
  8
1
  6
Continuous
 62
     7
100
AcDbLine
 10
353.75
 20
1188.584905999998
 30
0.0
 11
352.7499999999998
 21
1188.584905999998
 31
0.0
  0
ARC
  5
3B7
330
1E
100
AcDbEntity
  8
1
  6
Continuous
 62
     7
100
AcDbCircle
 10
353.25
 20
1190.084906
 30
0.0
 40
1.0
100
AcDbArc
 50
180.0
 51
0.0
  0
ARC
  5
3B8
330
1E
100
AcDbEntity
  8
1
  6
Continuous
 62
     7
100
AcDbCircle
 10
353.25
 20
1190.584906
 30
0.0
 40
1.0
100
AcDbArc
 50
0.0
 51
180.0
  0
LINE
  5
3B9
330
1E
100
AcDbEntity
  8
1
  6
Continuous
 62
     7
100
AcDbLine
 10
352.2499999999998
 20
1190.584906
 30
0.0
 11
352.2499999999998
 21
1190.084906
 31
0.0
  0
LINE
  5
3BA
330
1E
100
AcDbEntity
  8
1
  6
Continuous
 62
     7
100
AcDbLine
 10
354.2499999999998
 20
1190.584906
 30
0.0
 11
354.2499999999998
 21
1190.084906
 31
0.0
  0
CIRCLE
  5
3BB
330
1E
100
AcDbEntity
  8
1
  6
Continuous
 62
     7
100
AcDbCircle
 10
353.25
 20
1190.334906
 30
0.0
 40
1.0
  0
LINE
  5
3BC
330
1E
100
AcDbEntity
  8
1
  6
Continuous
 62
     7
100
AcDbLine
 10
349.55
 20
1189.084906
 30
0.0
 11
349.55
 21
1184.584906
 31
0.0
  0
LINE
  5
3BD
330
1E
100
AcDbEntity
  8
1
  6
Continuous
 62
     7
100
AcDbLine
 10
349.55
 20
1184.584906
 30
0.0
 11
351.55
 21
1184.584906
 31
0.0
  0
LINE
  5
3BE
330
1E
100
AcDbEntity
  8
1
  6
Continuous
 62
     7
100
AcDbLine
 10
351.55
 20
1184.584906
 30
0.0
 11
351.55
 21
1189.084906
 31
0.0
  0
LINE
  5
3BF
330
1E
100
AcDbEntity
  8
1
  6
Continuous
 62
     7
100
AcDbLine
 10
351.55
 20
1189.084906
 30
0.0
 11
349.55
 21
1189.084906
 31
0.0
  0
LINE
  5
3C0
330
1E
100
AcDbEntity
  8
1
  6
Continuous
 62
     7
100
AcDbLine
 10
350.05
 20
1188.584905999998
 30
0.0
 11
350.05
 21
1185.084905999999
 31
0.0
  0
LINE
  5
3C1
330
1E
100
AcDbEntity
  8
1
  6
Continuous
 62
     7
100
AcDbLine
 10
350.05
 20
1185.084905999999
 30
0.0
 11
351.05
 21
1185.084905999999
 31
0.0
  0
LINE
  5
3C2
330
1E
100
AcDbEntity
  8
1
  6
Continuous
 62
     7
100
AcDbLine
 10
351.05
 20
1185.084905999999
 30
0.0
 11
351.05
 21
1188.584905999998
 31
0.0
  0
LINE
  5
3C3
330
1E
100
AcDbEntity
  8
1
  6
Continuous
 62
     7
100
AcDbLine
 10
351.05
 20
1188.584905999998
 30
0.0
 11
350.05
 21
1188.584905999998
 31
0.0
  0
ARC
  5
3C4
330
1E
100
AcDbEntity
  8
1
  6
Continuous
 62
     7
100
AcDbCircle
 10
350.55
 20
1190.084906
 30
0.0
 40
1.0
100
AcDbArc
 50
180.0
 51
0.0
  0
ARC
  5
3C5
330
1E
100
AcDbEntity
  8
1
  6
Continuous
 62
     7
100
AcDbCircle
 10
350.55
 20
1190.584906
 30
0.0
 40
1.0
100
AcDbArc
 50
0.0
 51
180.0
  0
LINE
  5
3C6
330
1E
100
AcDbEntity
  8
1
  6
Continuous
 62
     7
100
AcDbLine
 10
349.55
 20
1190.584906
 30
0.0
 11
349.55
 21
1190.084906
 31
0.0
  0
LINE
  5
3C7
330
1E
100
AcDbEntity
  8
1
  6
Continuous
 62
     7
100
AcDbLine
 10
351.55
 20
1190.584906
 30
0.0
 11
351.55
 21
1190.084906
 31
0.0
  0
CIRCLE
  5
3C8
330
1E
100
AcDbEntity
  8
1
  6
Continuous
 62
     7
100
AcDbCircle
 10
350.55
 20
1190.334906
 30
0.0
 40
1.0
  0
LINE
  5
3C9
330
1E
100
AcDbEntity
  8
1
  6
Continuous
 62
     7
100
AcDbLine
 10
351.55
 20
1187.584906
 30
0.0
 11
352.2499999999998
 21
1187.584906
 31
0.0
  0
LINE
  5
3CA
330
1E
100
AcDbEntity
  8
1
  6
Continuous
 62
     7
100
AcDbLine
 10
354.2499999999998
 20
1187.584906
 30
0.0
 11
354.95
 21
1187.584906
 31
0.0
  0
LINE
  5
3CB
330
1E
100
AcDbEntity
  8
1
  6
Continuous
 62
     7
100
AcDbLine
 10
356.95
 20
1187.584906
 30
0.0
 11
357.6499999999998
 21
1187.584906
 31
0.0
  0
LINE
  5
3CC
330
1E
100
AcDbEntity
  8
1
  6
Continuous
 62
     7
100
AcDbLine
 10
359.6499999999998
 20
1187.584906
 30
0.0
 11
360.35
 21
1187.584906
 31
0.0
  0
LINE
  5
3CD
330
1E
100
AcDbEntity
  8
1
  6
Continuous
 62
     7
100
AcDbLine
 10
362.35
 20
1187.584906
 30
0.0
 11
363.05
 21
1187.584906
 31
0.0
  0
LINE
  5
3CE
330
1E
100
AcDbEntity
  8
1
  6
Continuous
 62
     7
100
AcDbLine
 10
365.05
 20
1187.584906
 30
0.0
 11
365.75
 21
1187.584906
 31
0.0
  0
LINE
  5
3CF
330
1E
100
AcDbEntity
  8
1
  6
Continuous
 62
     7
100
AcDbLine
 10
367.75
 20
1187.584906
 30
0.0
 11
368.4499999999998
 21
1187.584906
 31
0.0
  0
LINE
  5
3D0
330
1E
100
AcDbEntity
  8
1
  6
Continuous
 62
     7
100
AcDbLine
 10
370.4499999999999
 20
1187.584906
 30
0.0
 11
371.15
 21
1187.584906
 31
0.0
  0
LINE
  5
3D1
330
1E
100
AcDbEntity
  8
1
  6
Continuous
 62
     7
100
AcDbLine
 10
371.15
 20
1187.584906
 30
0.0
 11
371.15
 21
1197.584906
 31
0.0
  0
LINE
  5
3D2
330
1E
100
AcDbEntity
  8
1
  6
Continuous
 62
     7
100
AcDbLine
 10
371.15
 20
1197.584906
 30
0.0
 11
346.85
 21
1197.584906
 31
0.0
  0
LINE
  5
3D3
330
1E
100
AcDbEntity
  8
1
  6
Continuous
 62
     7
100
AcDbLine
 10
346.85
 20
1197.584906
 30
0.0
 11
346.85
 21
1187.584906
 31
0.0
  0
LINE
  5
3D4
330
1E
100
AcDbEntity
  8
1
  6
Continuous
 62
     7
100
AcDbLine
 10
346.85
 20
1187.584906
 30
0.0
 11
349.55
 21
1187.584906
 31
0.0
  0
CIRCLE
  5
3D5
330
1E
100
AcDbEntity
  8
1
  6
Continuous
 62
     7
100
AcDbCircle
 10
268.0
 20
1182.584906
 30
0.0
 40
1.25
  0
CIRCLE
  5
3D6
330
1E
100
AcDbEntity
  8
1
  6
Continuous
 62
     7
100
AcDbCircle
 10
268.5655029999999
 20
1178.108487
 30
0.0
 40
1.25
  0
CIRCLE
  5
3D7
330
1E
100
AcDbEntity
  8
1
  6
Continuous
 62
     7
100
AcDbCircle
 10
270.22648
 20
1173.91334
 30
0.0
 40
1.25
  0
CIRCLE
  5
3D8
330
1E
100
AcDbEntity
  8
1
  6
Continuous
 62
     7
100
AcDbCircle
 10
272.878564
 20
1170.263058999998
 30
0.0
 40
1.25
  0
CIRCLE
  5
3D9
330
1E
100
AcDbEntity
  8
1
  6
Continuous
 62
     7
100
AcDbCircle
 10
276.355115
 20
1167.387005
 30
0.0
 40
1.25
  0
CIRCLE
  5
3DA
330
1E
100
AcDbEntity
  8
1
  6
Continuous
 62
     7
100
AcDbCircle
 10
280.4376919999999
 20
1165.465889
 30
0.0
 40
1.25
  0
CIRCLE
  5
3DB
330
1E
100
AcDbEntity
  8
1
  6
Continuous
 62
     7
100
AcDbCircle
 10
284.869766
 20
1164.620425
 30
0.0
 40
1.25
  0
CIRCLE
  5
3DC
330
1E
100
AcDbEntity
  8
1
  6
Continuous
 62
     7
100
AcDbCircle
 10
289.372877
 20
1164.903738
 30
0.0
 40
1.25
  0
CIRCLE
  5
3DD
330
1E
100
AcDbEntity
  8
1
  6
Continuous
 62
     7
100
AcDbCircle
 10
293.6640549999999
 20
1166.298032
 30
0.0
 40
1.25
  0
CIRCLE
  5
3DE
330
1E
100
AcDbEntity
  8
1
  6
Continuous
 62
     7
100
AcDbCircle
 10
297.4736229999998
 20
1168.71566
 30
0.0
 40
1.25
  0
CIRCLE
  5
3DF
330
1E
100
AcDbEntity
  8
1
  6
Continuous
 62
     7
100
AcDbCircle
 10
300.56234
 20
1172.004819
 30
0.0
 40
1.25
  0
CIRCLE
  5
3E0
330
1E
100
AcDbEntity
  8
1
  6
Continuous
 62
     7
100
AcDbCircle
 10
302.7360229999998
 20
1175.958782
 30
0.0
 40
1.25
  0
CIRCLE
  5
3E1
330
1E
100
AcDbEntity
  8
1
  6
Continuous
 62
     7
100
AcDbCircle
 10
303.858088
 20
1180.329093
 30
0.0
 40
1.25
  0
CIRCLE
  5
3E2
330
1E
100
AcDbEntity
  8
1
  6
Continuous
 62
     7
100
AcDbCircle
 10
272.000056
 20
1182.584906
 30
0.0
 40
1.25
  0
CIRCLE
  5
3E3
330
1E
100
AcDbEntity
  8
1
  6
Continuous
 62
     7
100
AcDbCircle
 10
272.758823
 20
1178.038504999997
 30
0.0
 40
1.25
  0
CIRCLE
  5
3E4
330
1E
100
AcDbEntity
  8
1
  6
Continuous
 62
     7
100
AcDbCircle
 10
274.9528789999999
 20
1173.984912999997
 30
0.0
 40
1.25
  0
CIRCLE
  5
3E5
330
1E
100
AcDbEntity
  8
1
  6
Continuous
 62
     7
100
AcDbCircle
 10
278.344396
 20
1170.863521
 30
0.0
 40
1.25
  0
CIRCLE
  5
3E6
330
1E
100
AcDbEntity
  8
1
  6
Continuous
 62
     7
100
AcDbCircle
 10
282.5657529999998
 20
1169.012671
 30
0.0
 40
1.25
  0
CIRCLE
  5
3E7
330
1E
100
AcDbEntity
  8
1
  6
Continuous
 62
     7
100
AcDbCircle
 10
287.159366
 20
1168.632988
 30
0.0
 40
1.25
  0
CIRCLE
  5
3E8
330
1E
100
AcDbEntity
  8
1
  6
Continuous
 62
     7
100
AcDbCircle
 10
291.627305
 20
1169.765621
 30
0.0
 40
1.25
  0
CIRCLE
  5
3E9
330
1E
100
AcDbEntity
  8
1
  6
Continuous
 62
     7
100
AcDbCircle
 10
295.485312
 20
1172.287823
 30
0.0
 40
1.25
  0
CIRCLE
  5
3EA
330
1E
100
AcDbEntity
  8
1
  6
Continuous
 62
     7
100
AcDbCircle
 10
298.31515
 20
1175.926193
 30
0.0
 40
1.25
  0
CIRCLE
  5
3EB
330
1E
100
AcDbEntity
  8
1
  6
Continuous
 62
     7
100
AcDbCircle
 10
299.810074
 20
1180.286343
 30
0.0
 40
1.25
  0
CIRCLE
  5
3EC
330
1E
100
AcDbEntity
  8
1
  6
Continuous
 62
     7
100
AcDbCircle
 10
276.000056
 20
1182.584906
 30
0.0
 40
1.25
  0
CIRCLE
  5
3ED
330
1E
100
AcDbEntity
  8
1
  6
Continuous
 62
     7
100
AcDbCircle
 10
277.145308
 20
1177.938031
 30
0.0
 40
1.25
  0
CIRCLE
  5
3EE
330
1E
100
AcDbEntity
  8
1
  6
Continuous
 62
     7
100
AcDbCircle
 10
280.318747
 20
1174.355524
 30
0.0
 40
1.25
  0
CIRCLE
  5
3EF
330
1E
100
AcDbEntity
  8
1
  6
Continuous
 62
     7
100
AcDbCircle
 10
284.793491
 20
1172.657963
 30
0.0
 40
1.25
  0
CIRCLE
  5
3F0
330
1E
100
AcDbEntity
  8
1
  6
Continuous
 62
     7
100
AcDbCircle
 10
289.5446
 20
1173.234172999997
 30
0.0
 40
1.25
  0
CIRCLE
  5
3F1
330
1E
100
AcDbEntity
  8
1
  6
Continuous
 62
     7
100
AcDbCircle
 10
293.4838299999999
 20
1175.952174999999
 30
0.0
 40
1.25
  0
CIRCLE
  5
3F2
330
1E
100
AcDbEntity
  8
1
  6
Continuous
 62
     7
100
AcDbCircle
 10
295.7088959999998
 20
1180.189406
 30
0.0
 40
1.25
  0
CIRCLE
  5
3F3
330
1E
100
AcDbEntity
  8
1
  6
Continuous
 62
     7
100
AcDbCircle
 10
268.5655029999999
 20
1187.061324
 30
0.0
 40
1.25
  0
CIRCLE
  5
3F4
330
1E
100
AcDbEntity
  8
1
  6
Continuous
 62
     7
100
AcDbCircle
 10
270.22648
 20
1191.256472
 30
0.0
 40
1.25
  0
CIRCLE
  5
3F5
330
1E
100
AcDbEntity
  8
1
  6
Continuous
 62
     7
100
AcDbCircle
 10
272.878564
 20
1194.906753
 30
0.0
 40
1.25
  0
CIRCLE
  5
3F6
330
1E
100
AcDbEntity
  8
1
  6
Continuous
 62
     7
100
AcDbCircle
 10
276.355115
 20
1197.782807
 30
0.0
 40
1.25
  0
CIRCLE
  5
3F7
330
1E
100
AcDbEntity
  8
1
  6
Continuous
 62
     7
100
AcDbCircle
 10
280.4376919999999
 20
1199.703923
 30
0.0
 40
1.25
  0
CIRCLE
  5
3F8
330
1E
100
AcDbEntity
  8
1
  6
Continuous
 62
     7
100
AcDbCircle
 10
284.869766
 20
1200.549387
 30
0.0
 40
1.25
  0
CIRCLE
  5
3F9
330
1E
100
AcDbEntity
  8
1
  6
Continuous
 62
     7
100
AcDbCircle
 10
289.372877
 20
1200.266074
 30
0.0
 40
1.25
  0
CIRCLE
  5
3FA
330
1E
100
AcDbEntity
  8
1
  6
Continuous
 62
     7
100
AcDbCircle
 10
293.6640549999999
 20
1198.87178
 30
0.0
 40
1.25
  0
CIRCLE
  5
3FB
330
1E
100
AcDbEntity
  8
1
  6
Continuous
 62
     7
100
AcDbCircle
 10
297.4736229999998
 20
1196.454150999999
 30
0.0
 40
1.25
  0
CIRCLE
  5
3FC
330
1E
100
AcDbEntity
  8
1
  6
Continuous
 62
     7
100
AcDbCircle
 10
300.56234
 20
1193.164992999999
 30
0.0
 40
1.25
  0
CIRCLE
  5
3FD
330
1E
100
AcDbEntity
  8
1
  6
Continuous
 62
     7
100
AcDbCircle
 10
302.7360229999998
 20
1189.21103
 30
0.0
 40
1.25
  0
CIRCLE
  5
3FE
330
1E
100
AcDbEntity
  8
1
  6
Continuous
 62
     7
100
AcDbCircle
 10
303.858088
 20
1184.840719
 30
0.0
 40
1.25
  0
CIRCLE
  5
3FF
330
1E
100
AcDbEntity
  8
1
  6
Continuous
 62
     7
100
AcDbCircle
 10
272.758823
 20
1187.131307
 30
0.0
 40
1.25
  0
CIRCLE
  5
400
330
1E
100
AcDbEntity
  8
1
  6
Continuous
 62
     7
100
AcDbCircle
 10
274.9528789999999
 20
1191.184899
 30
0.0
 40
1.25
  0
CIRCLE
  5
401
330
1E
100
AcDbEntity
  8
1
  6
Continuous
 62
     7
100
AcDbCircle
 10
278.344396
 20
1194.306291
 30
0.0
 40
1.25
  0
CIRCLE
  5
402
330
1E
100
AcDbEntity
  8
1
  6
Continuous
 62
     7
100
AcDbCircle
 10
282.5657529999998
 20
1196.157141
 30
0.0
 40
1.25
  0
CIRCLE
  5
403
330
1E
100
AcDbEntity
  8
1
  6
Continuous
 62
     7
100
AcDbCircle
 10
287.159366
 20
1196.536823
 30
0.0
 40
1.25
  0
CIRCLE
  5
404
330
1E
100
AcDbEntity
  8
1
  6
Continuous
 62
     7
100
AcDbCircle
 10
291.627305
 20
1195.404191
 30
0.0
 40
1.25
  0
CIRCLE
  5
405
330
1E
100
AcDbEntity
  8
1
  6
Continuous
 62
     7
100
AcDbCircle
 10
295.485312
 20
1192.881988999997
 30
0.0
 40
1.25
  0
CIRCLE
  5
406
330
1E
100
AcDbEntity
  8
1
  6
Continuous
 62
     7
100
AcDbCircle
 10
298.31515
 20
1189.243618999997
 30
0.0
 40
1.25
  0
CIRCLE
  5
407
330
1E
100
AcDbEntity
  8
1
  6
Continuous
 62
     7
100
AcDbCircle
 10
299.810074
 20
1184.883468999998
 30
0.0
 40
1.25
  0
CIRCLE
  5
408
330
1E
100
AcDbEntity
  8
1
  6
Continuous
 62
     7
100
AcDbCircle
 10
277.145308
 20
1187.231781
 30
0.0
 40
1.25
  0
CIRCLE
  5
409
330
1E
100
AcDbEntity
  8
1
  6
Continuous
 62
     7
100
AcDbCircle
 10
280.318747
 20
1190.814288
 30
0.0
 40
1.25
  0
CIRCLE
  5
40A
330
1E
100
AcDbEntity
  8
1
  6
Continuous
 62
     7
100
AcDbCircle
 10
284.793491
 20
1192.511849
 30
0.0
 40
1.25
  0
CIRCLE
  5
40B
330
1E
100
AcDbEntity
  8
1
  6
Continuous
 62
     7
100
AcDbCircle
 10
289.5446
 20
1191.935639
 30
0.0
 40
1.25
  0
CIRCLE
  5
40C
330
1E
100
AcDbEntity
  8
1
  6
Continuous
 62
     7
100
AcDbCircle
 10
293.4838299999999
 20
1189.217637
 30
0.0
 40
1.25
  0
CIRCLE
  5
40D
330
1E
100
AcDbEntity
  8
1
  6
Continuous
 62
     7
100
AcDbCircle
 10
295.7088959999998
 20
1184.980406
 30
0.0
 40
1.25
  0
CIRCLE
  5
40E
330
1E
100
AcDbEntity
  8
1
  6
Continuous
 62
     7
100
AcDbCircle
 10
269.4999999999999
 20
1199.084906
 30
0.0
 40
2.5
  0
LINE
  5
40F
330
1E
100
AcDbEntity
  8
1
  6
Continuous
 62
     7
100
AcDbLine
 10
267.75
 20
1199.084906
 30
0.0
 11
271.2499999999999
 21
1199.084906
 31
0.0
  0
LINE
  5
410
330
1E
100
AcDbEntity
  8
1
  6
Continuous
 62
     7
100
AcDbLine
 10
269.4999999999999
 20
1200.834906
 30
0.0
 11
269.4999999999999
 21
1197.334906
 31
0.0
  0
CIRCLE
  5
411
330
1E
100
AcDbEntity
  8
1
  6
Continuous
 62
     7
100
AcDbCircle
 10
302.4999999999999
 20
1199.084906
 30
0.0
 40
2.5
  0
LINE
  5
412
330
1E
100
AcDbEntity
  8
1
  6
Continuous
 62
     7
100
AcDbLine
 10
300.75
 20
1199.084906
 30
0.0
 11
304.2499999999999
 21
1199.084906
 31
0.0
  0
LINE
  5
413
330
1E
100
AcDbEntity
  8
1
  6
Continuous
 62
     7
100
AcDbLine
 10
302.4999999999999
 20
1200.834906
 30
0.0
 11
302.4999999999999
 21
1197.334906
 31
0.0
  0
CIRCLE
  5
414
330
1E
100
AcDbEntity
  8
1
  6
Continuous
 62
     7
100
AcDbCircle
 10
302.4999999999999
 20
1166.084906
 30
0.0
 40
2.5
  0
LINE
  5
415
330
1E
100
AcDbEntity
  8
1
  6
Continuous
 62
     7
100
AcDbLine
 10
300.75
 20
1166.084906
 30
0.0
 11
304.2499999999999
 21
1166.084906
 31
0.0
  0
LINE
  5
416
330
1E
100
AcDbEntity
  8
1
  6
Continuous
 62
     7
100
AcDbLine
 10
302.4999999999999
 20
1167.834906
 30
0.0
 11
302.4999999999999
 21
1164.334906
 31
0.0
  0
CIRCLE
  5
417
330
1E
100
AcDbEntity
  8
1
  6
Continuous
 62
     7
100
AcDbCircle
 10
269.4999999999999
 20
1166.084906
 30
0.0
 40
2.5
  0
LINE
  5
418
330
1E
100
AcDbEntity
  8
1
  6
Continuous
 62
     7
100
AcDbLine
 10
267.75
 20
1166.084906
 30
0.0
 11
271.2499999999999
 21
1166.084906
 31
0.0
  0
LINE
  5
419
330
1E
100
AcDbEntity
  8
1
  6
Continuous
 62
     7
100
AcDbLine
 10
269.4999999999999
 20
1167.834906
 30
0.0
 11
269.4999999999999
 21
1164.334906
 31
0.0
  0
LINE
  5
41A
330
1E
100
AcDbEntity
  8
1
  6
Continuous
 62
     7
100
AcDbLine
 10
517.0
 20
1020.0
 30
0.0
 11
517.0
 21
1025.5
 31
0.0
  0
ARC
  5
41B
330
1E
100
AcDbEntity
  8
1
  6
Continuous
 62
     7
100
AcDbCircle
 10
518.5
 20
1025.5
 30
0.0
 40
1.5
100
AcDbArc
 50
90.0
 51
180.0
  0
LINE
  5
41C
330
1E
100
AcDbEntity
  8
1
  6
Continuous
 62
     7
100
AcDbLine
 10
518.5
 20
1027.0
 30
0.0
 11
523.5
 21
1027.0
 31
0.0
  0
LINE
  5
41D
330
1E
100
AcDbEntity
  8
1
  6
Continuous
 62
     7
100
AcDbLine
 10
525.0
 20
1025.5
 30
0.0
 11
525.0
 21
1020.0
 31
0.0
  0
ARC
  5
41E
330
1E
100
AcDbEntity
  8
1
  6
Continuous
 62
     7
100
AcDbCircle
 10
523.5
 20
1025.5
 30
0.0
 40
1.5
100
AcDbArc
 50
0.0
 51
90.0
  0
LINE
  5
41F
330
1E
100
AcDbEntity
  8
1
  6
Continuous
 62
     7
100
AcDbLine
 10
503.0
 20
1020.0
 30
0.0
 11
503.0
 21
1025.5
 31
0.0
  0
ARC
  5
420
330
1E
100
AcDbEntity
  8
1
  6
Continuous
 62
     7
100
AcDbCircle
 10
504.4999999999998
 20
1025.5
 30
0.0
 40
1.5
100
AcDbArc
 50
90.0
 51
180.0
  0
LINE
  5
421
330
1E
100
AcDbEntity
  8
1
  6
Continuous
 62
     7
100
AcDbLine
 10
504.4999999999998
 20
1027.0
 30
0.0
 11
509.4999999999997
 21
1027.0
 31
0.0
  0
LINE
  5
422
330
1E
100
AcDbEntity
  8
1
  6
Continuous
 62
     7
100
AcDbLine
 10
511.0
 20
1025.5
 30
0.0
 11
511.0
 21
1020.0
 31
0.0
  0
ARC
  5
423
330
1E
100
AcDbEntity
  8
1
  6
Continuous
 62
     7
100
AcDbCircle
 10
509.4999999999997
 20
1025.5
 30
0.0
 40
1.5
100
AcDbArc
 50
0.0
 51
90.0
  0
LINE
  5
424
330
1E
100
AcDbEntity
  8
1
  6
Continuous
 62
     7
100
AcDbLine
 10
489.0
 20
1020.0
 30
0.0
 11
489.0
 21
1025.5
 31
0.0
  0
ARC
  5
425
330
1E
100
AcDbEntity
  8
1
  6
Continuous
 62
     7
100
AcDbCircle
 10
490.5
 20
1025.5
 30
0.0
 40
1.5
100
AcDbArc
 50
90.0
 51
180.0
  0
LINE
  5
426
330
1E
100
AcDbEntity
  8
1
  6
Continuous
 62
     7
100
AcDbLine
 10
490.5
 20
1027.0
 30
0.0
 11
495.5
 21
1027.0
 31
0.0
  0
LINE
  5
427
330
1E
100
AcDbEntity
  8
1
  6
Continuous
 62
     7
100
AcDbLine
 10
497.0
 20
1025.5
 30
0.0
 11
497.0
 21
1020.0
 31
0.0
  0
ARC
  5
428
330
1E
100
AcDbEntity
  8
1
  6
Continuous
 62
     7
100
AcDbCircle
 10
495.5
 20
1025.5
 30
0.0
 40
1.5
100
AcDbArc
 50
0.0
 51
90.0
  0
LINE
  5
429
330
1E
100
AcDbEntity
  8
1
  6
Continuous
 62
     7
100
AcDbLine
 10
456.030571
 20
1020.0
 30
0.0
 11
456.030571
 21
1025.0
 31
0.0
  0
LINE
  5
42A
330
1E
100
AcDbEntity
  8
1
  6
Continuous
 62
     7
100
AcDbLine
 10
458.5340509999999
 20
1020.0
 30
0.0
 11
458.5340509999999
 21
1025.0
 31
0.0
  0
LINE
  5
42B
330
1E
100
AcDbEntity
  8
1
  6
Continuous
 62
     7
100
AcDbLine
 10
481.4659459999998
 20
1020.0
 30
0.0
 11
481.4659459999998
 21
1025.0
 31
0.0
  0
LINE
  5
42C
330
1E
100
AcDbEntity
  8
1
  6
Continuous
 62
     7
100
AcDbLine
 10
483.9694259999998
 20
1020.0
 30
0.0
 11
483.9694259999998
 21
1025.0
 31
0.0
  0
LINE
  5
42D
330
1E
100
AcDbEntity
  8
1
  6
Continuous
 62
     7
100
AcDbLine
 10
461.6666089999998
 20
1020.0
 30
0.0
 11
461.6666089999998
 21
1023.5
 31
0.0
  0
ARC
  5
42E
330
1E
100
AcDbEntity
  8
1
  6
Continuous
 62
     7
100
AcDbCircle
 10
463.166609
 20
1023.5
 30
0.0
 40
1.5
100
AcDbArc
 50
90.0
 51
180.0
  0
LINE
  5
42F
330
1E
100
AcDbEntity
  8
1
  6
Continuous
 62
     7
100
AcDbLine
 10
463.166609
 20
1025.0
 30
0.0
 11
476.8333909999998
 21
1025.0
 31
0.0
  0
LINE
  5
430
330
1E
100
AcDbEntity
  8
1
  6
Continuous
 62
     7
100
AcDbLine
 10
478.333391
 20
1023.5
 30
0.0
 11
478.333391
 21
1020.0
 31
0.0
  0
ARC
  5
431
330
1E
100
AcDbEntity
  8
1
  6
Continuous
 62
     7
100
AcDbCircle
 10
476.8333909999998
 20
1023.5
 30
0.0
 40
1.5
100
AcDbArc
 50
0.0
 51
90.0
  0
LINE
  5
432
330
1E
100
AcDbEntity
  8
1
  6
Continuous
 62
     7
100
AcDbLine
 10
454.7788309999998
 20
1020.0
 30
0.0
 11
454.7788309999998
 21
1024.5
 31
0.0
  0
ARC
  5
433
330
1E
100
AcDbEntity
  8
1
  6
Continuous
 62
     7
100
AcDbCircle
 10
455.2788309999998
 20
1024.5
 30
0.0
 40
0.5
100
AcDbArc
 50
90.0
 51
180.0
  0
LINE
  5
434
330
1E
100
AcDbEntity
  8
1
  6
Continuous
 62
     7
100
AcDbLine
 10
455.2788309999998
 20
1025.0
 30
0.0
 11
459.285794
 21
1025.0
 31
0.0
  0
LINE
  5
435
330
1E
100
AcDbEntity
  8
1
  6
Continuous
 62
     7
100
AcDbLine
 10
459.785794
 20
1024.5
 30
0.0
 11
459.785794
 21
1020.0
 31
0.0
  0
ARC
  5
436
330
1E
100
AcDbEntity
  8
1
  6
Continuous
 62
     7
100
AcDbCircle
 10
459.285794
 20
1024.5
 30
0.0
 40
0.5
100
AcDbArc
 50
0.0
 51
90.0
  0
LINE
  5
437
330
1E
100
AcDbEntity
  8
1
  6
Continuous
 62
     7
100
AcDbLine
 10
480.2142059999998
 20
1020.0
 30
0.0
 11
480.2142059999998
 21
1024.5
 31
0.0
  0
ARC
  5
438
330
1E
100
AcDbEntity
  8
1
  6
Continuous
 62
     7
100
AcDbCircle
 10
480.7142059999998
 20
1024.5
 30
0.0
 40
0.5
100
AcDbArc
 50
90.0
 51
180.0
  0
LINE
  5
439
330
1E
100
AcDbEntity
  8
1
  6
Continuous
 62
     7
100
AcDbLine
 10
480.7142059999998
 20
1025.0
 30
0.0
 11
484.721169
 21
1025.0
 31
0.0
  0
LINE
  5
43A
330
1E
100
AcDbEntity
  8
1
  6
Continuous
 62
     7
100
AcDbLine
 10
485.221169
 20
1024.5
 30
0.0
 11
485.221169
 21
1020.0
 31
0.0
  0
ARC
  5
43B
330
1E
100
AcDbEntity
  8
1
  6
Continuous
 62
     7
100
AcDbCircle
 10
484.721169
 20
1024.5
 30
0.0
 40
0.5
100
AcDbArc
 50
0.0
 51
90.0
  0
LINE
  5
43C
330
1E
100
AcDbEntity
  8
1
  6
Continuous
 62
     7
100
AcDbLine
 10
431.248259
 20
1020.0
 30
0.0
 11
431.248259
 21
1025.0
 31
0.0
  0
LINE
  5
43D
330
1E
100
AcDbEntity
  8
1
  6
Continuous
 62
     7
100
AcDbLine
 10
433.751739
 20
1020.0
 30
0.0
 11
433.751739
 21
1025.0
 31
0.0
  0
LINE
  5
43E
330
1E
100
AcDbEntity
  8
1
  6
Continuous
 62
     7
100
AcDbLine
 10
429.996518
 20
1020.0
 30
0.0
 11
429.996518
 21
1024.5
 31
0.0
  0
ARC
  5
43F
330
1E
100
AcDbEntity
  8
1
  6
Continuous
 62
     7
100
AcDbCircle
 10
430.4965179999999
 20
1024.5
 30
0.0
 40
0.5
100
AcDbArc
 50
90.0
 51
180.0
  0
LINE
  5
440
330
1E
100
AcDbEntity
  8
1
  6
Continuous
 62
     7
100
AcDbLine
 10
430.4965179999999
 20
1025.0
 30
0.0
 11
434.503482
 21
1025.0
 31
0.0
  0
LINE
  5
441
330
1E
100
AcDbEntity
  8
1
  6
Continuous
 62
     7
100
AcDbLine
 10
435.003482
 20
1024.5
 30
0.0
 11
435.003482
 21
1020.0
 31
0.0
  0
ARC
  5
442
330
1E
100
AcDbEntity
  8
1
  6
Continuous
 62
     7
100
AcDbCircle
 10
434.503482
 20
1024.5
 30
0.0
 40
0.5
100
AcDbArc
 50
0.0
 51
90.0
  0
LINE
  5
443
330
1E
100
AcDbEntity
  8
1
  6
Continuous
 62
     7
100
AcDbLine
 10
406.248259
 20
1020.0
 30
0.0
 11
406.248259
 21
1025.0
 31
0.0
  0
LINE
  5
444
330
1E
100
AcDbEntity
  8
1
  6
Continuous
 62
     7
100
AcDbLine
 10
408.751739
 20
1020.0
 30
0.0
 11
408.751739
 21
1025.0
 31
0.0
  0
LINE
  5
445
330
1E
100
AcDbEntity
  8
1
  6
Continuous
 62
     7
100
AcDbLine
 10
404.996518
 20
1020.0
 30
0.0
 11
404.996518
 21
1024.5
 31
0.0
  0
ARC
  5
446
330
1E
100
AcDbEntity
  8
1
  6
Continuous
 62
     7
100
AcDbCircle
 10
405.496518
 20
1024.5
 30
0.0
 40
0.5
100
AcDbArc
 50
90.0
 51
180.0
  0
LINE
  5
447
330
1E
100
AcDbEntity
  8
1
  6
Continuous
 62
     7
100
AcDbLine
 10
405.496518
 20
1025.0
 30
0.0
 11
409.5034819999998
 21
1025.0
 31
0.0
  0
LINE
  5
448
330
1E
100
AcDbEntity
  8
1
  6
Continuous
 62
     7
100
AcDbLine
 10
410.0034819999998
 20
1024.5
 30
0.0
 11
410.0034819999998
 21
1020.0
 31
0.0
  0
ARC
  5
449
330
1E
100
AcDbEntity
  8
1
  6
Continuous
 62
     7
100
AcDbCircle
 10
409.5034819999998
 20
1024.5
 30
0.0
 40
0.5
100
AcDbArc
 50
0.0
 51
90.0
  0
LINE
  5
44A
330
1E
100
AcDbEntity
  8
1
  6
Continuous
 62
     7
100
AcDbLine
 10
410.493675
 20
1020.0
 30
0.0
 11
410.493675
 21
1023.5
 31
0.0
  0
ARC
  5
44B
330
1E
100
AcDbEntity
  8
1
  6
Continuous
 62
     7
100
AcDbCircle
 10
411.9936749999998
 20
1023.5
 30
0.0
 40
1.5
100
AcDbArc
 50
90.0
 51
180.0
  0
LINE
  5
44C
330
1E
100
AcDbEntity
  8
1
  6
Continuous
 62
     7
100
AcDbLine
 10
411.9936749999998
 20
1025.0
 30
0.0
 11
428.006768
 21
1025.0
 31
0.0
  0
LINE
  5
44D
330
1E
100
AcDbEntity
  8
1
  6
Continuous
 62
     7
100
AcDbLine
 10
429.5067679999998
 20
1023.5
 30
0.0
 11
429.5067679999998
 21
1020.0
 31
0.0
  0
ARC
  5
44E
330
1E
100
AcDbEntity
  8
1
  6
Continuous
 62
     7
100
AcDbCircle
 10
428.006768
 20
1023.5
 30
0.0
 40
1.5
100
AcDbArc
 50
0.0
 51
90.0
  0
LINE
  5
44F
330
1E
100
AcDbEntity
  8
1
  6
Continuous
 62
     7
100
AcDbLine
 10
346.85
 20
1020.0
 30
0.0
 11
346.85
 21
1021.0
 31
0.0
  0
LINE
  5
450
330
1E
100
AcDbEntity
  8
1
  6
Continuous
 62
     7
100
AcDbLine
 10
346.85
 20
1021.0
 30
0.0
 11
371.15
 21
1021.0
 31
0.0
  0
LINE
  5
451
330
1E
100
AcDbEntity
  8
1
  6
Continuous
 62
     7
100
AcDbLine
 10
371.15
 20
1021.0
 30
0.0
 11
371.15
 21
1020.0
 31
0.0
  0
LINE
  5
452
330
1E
100
AcDbEntity
  8
1
  6
Continuous
 62
     7
100
AcDbLine
 10
382.5
 20
1020.0
 30
0.0
 11
382.5
 21
1021.0
 31
0.0
  0
LINE
  5
453
330
1E
100
AcDbEntity
  8
1
  6
Continuous
 62
     7
100
AcDbLine
 10
382.5
 20
1021.0
 30
0.0
 11
401.4999999999998
 21
1021.0
 31
0.0
  0
LINE
  5
454
330
1E
100
AcDbEntity
  8
1
  6
Continuous
 62
     7
100
AcDbLine
 10
401.4999999999998
 20
1021.0
 30
0.0
 11
401.4999999999998
 21
1020.0
 31
0.0
  0
LINE
  5
455
330
1E
100
AcDbEntity
  8
1
  6
Continuous
 62
     7
100
AcDbLine
 10
370.4499999999999
 20
1020.0
 30
0.0
 11
370.4499999999999
 21
1021.0
 31
0.0
  0
LINE
  5
456
330
1E
100
AcDbEntity
  8
1
  6
Continuous
 62
     7
100
AcDbLine
 10
368.4499999999998
 20
1020.0
 30
0.0
 11
368.4499999999998
 21
1021.0
 31
0.0
  0
LINE
  5
457
330
1E
100
AcDbEntity
  8
1
  6
Continuous
 62
     7
100
AcDbLine
 10
367.75
 20
1020.0
 30
0.0
 11
367.75
 21
1021.0
 31
0.0
  0
LINE
  5
458
330
1E
100
AcDbEntity
  8
1
  6
Continuous
 62
     7
100
AcDbLine
 10
365.75
 20
1020.0
 30
0.0
 11
365.75
 21
1021.0
 31
0.0
  0
LINE
  5
459
330
1E
100
AcDbEntity
  8
1
  6
Continuous
 62
     7
100
AcDbLine
 10
365.05
 20
1020.0
 30
0.0
 11
365.05
 21
1021.0
 31
0.0
  0
LINE
  5
45A
330
1E
100
AcDbEntity
  8
1
  6
Continuous
 62
     7
100
AcDbLine
 10
363.05
 20
1020.0
 30
0.0
 11
363.05
 21
1021.0
 31
0.0
  0
LINE
  5
45B
330
1E
100
AcDbEntity
  8
1
  6
Continuous
 62
     7
100
AcDbLine
 10
362.35
 20
1020.0
 30
0.0
 11
362.35
 21
1021.0
 31
0.0
  0
LINE
  5
45C
330
1E
100
AcDbEntity
  8
1
  6
Continuous
 62
     7
100
AcDbLine
 10
360.35
 20
1020.0
 30
0.0
 11
360.35
 21
1021.0
 31
0.0
  0
LINE
  5
45D
330
1E
100
AcDbEntity
  8
1
  6
Continuous
 62
     7
100
AcDbLine
 10
359.6499999999998
 20
1020.0
 30
0.0
 11
359.6499999999998
 21
1021.0
 31
0.0
  0
LINE
  5
45E
330
1E
100
AcDbEntity
  8
1
  6
Continuous
 62
     7
100
AcDbLine
 10
357.6499999999998
 20
1020.0
 30
0.0
 11
357.6499999999998
 21
1021.0
 31
0.0
  0
LINE
  5
45F
330
1E
100
AcDbEntity
  8
1
  6
Continuous
 62
     7
100
AcDbLine
 10
356.95
 20
1020.0
 30
0.0
 11
356.95
 21
1021.0
 31
0.0
  0
LINE
  5
460
330
1E
100
AcDbEntity
  8
1
  6
Continuous
 62
     7
100
AcDbLine
 10
354.95
 20
1020.0
 30
0.0
 11
354.95
 21
1021.0
 31
0.0
  0
LINE
  5
461
330
1E
100
AcDbEntity
  8
1
  6
Continuous
 62
     7
100
AcDbLine
 10
354.2499999999998
 20
1020.0
 30
0.0
 11
354.2499999999998
 21
1021.0
 31
0.0
  0
LINE
  5
462
330
1E
100
AcDbEntity
  8
1
  6
Continuous
 62
     7
100
AcDbLine
 10
352.2499999999998
 20
1020.0
 30
0.0
 11
352.2499999999998
 21
1021.0
 31
0.0
  0
LINE
  5
463
330
1E
100
AcDbEntity
  8
1
  6
Continuous
 62
     7
100
AcDbLine
 10
351.55
 20
1020.0
 30
0.0
 11
351.55
 21
1021.0
 31
0.0
  0
LINE
  5
464
330
1E
100
AcDbEntity
  8
1
  6
Continuous
 62
     7
100
AcDbLine
 10
349.55
 20
1020.0
 30
0.0
 11
349.55
 21
1021.0
 31
0.0
  0
LINE
  5
465
330
1E
100
AcDbEntity
  8
1
  6
Continuous
 62
     7
100
AcDbLine
 10
200.0083559999999
 20
1020.0
 30
0.0
 11
200.0083559999999
 21
1021.0
 31
0.0
  0
LINE
  5
466
330
1E
100
AcDbEntity
  8
1
  6
Continuous
 62
     7
100
AcDbLine
 10
200.0083559999999
 20
1021.0
 30
0.0
 11
221.0376029999999
 21
1021.0
 31
0.0
  0
LINE
  5
467
330
1E
100
AcDbEntity
  8
1
  6
Continuous
 62
     7
100
AcDbLine
 10
221.0376029999999
 20
1021.0
 30
0.0
 11
221.0376029999999
 21
1020.0
 31
0.0
  0
ARC
  5
468
330
1E
100
AcDbEntity
  8
1
  6
Continuous
 62
     7
100
AcDbCircle
 10
209.754539
 20
1021.0
 30
0.0
 40
7.242702999999997
100
AcDbArc
 50
136.3421529999999
 51
179.999983
  0
ARC
  5
469
330
1E
100
AcDbEntity
  8
1
  6
Continuous
 62
     7
100
AcDbCircle
 10
218.534122
 20
1043.15464
 30
0.0
 40
22.154638
100
AcDbArc
 50
230.742851
 51
270.0
  0
LINE
  5
46A
330
1E
100
AcDbEntity
  8
1
  6
Continuous
 62
     7
100
AcDbLine
 10
194.0
 20
1020.0
 30
0.0
 11
194.0
 21
1021.0
 31
0.0
  0
LINE
  5
46B
330
1E
100
AcDbEntity
  8
1
  6
Continuous
 62
     7
100
AcDbLine
 10
194.0
 20
1021.0
 30
0.0
 11
200.0083559999999
 21
1021.0
 31
0.0
  0
LINE
  5
46C
330
1E
100
AcDbEntity
  8
1
  6
Continuous
 62
     7
100
AcDbLine
 10
221.0376029999999
 20
1021.0
 30
0.0
 11
227.04596
 21
1021.0
 31
0.0
  0
LINE
  5
46D
330
1E
100
AcDbEntity
  8
1
  6
Continuous
 62
     7
100
AcDbLine
 10
227.04596
 20
1021.0
 30
0.0
 11
227.04596
 21
1020.0
 31
0.0
  0
LINE
  5
46E
330
1E
100
AcDbEntity
  8
1
  6
Continuous
 62
     7
100
AcDbLine
 10
196.001393
 20
1022.0
 30
0.0
 11
202.581204
 21
1022.0
 31
0.0
  0
ARC
  5
46F
330
1E
100
AcDbEntity
  8
1
  6
Continuous
 62
     7
100
AcDbCircle
 10
196.001393
 20
1021.0
 30
0.0
 40
1.0
100
AcDbArc
 50
90.0
 51
180.0
  0
LINE
  5
470
330
1E
100
AcDbEntity
  8
1
  6
Continuous
 62
     7
100
AcDbLine
 10
211.953148
 20
1022.0
 30
0.0
 11
225.0445669999999
 21
1022.0
 31
0.0
  0
ARC
  5
471
330
1E
100
AcDbEntity
  8
1
  6
Continuous
 62
     7
100
AcDbCircle
 10
225.0445669999999
 20
1021.0
 30
0.0
 40
1.0
100
AcDbArc
 50
0.0
 51
90.0
  0
TEXT
  5
496
330
1E
100
AcDbEntity
  8
1
  6
Continuous
 62
     7
100
AcDbText
 10
253.992773
 20
1197.845749
 30
0.0
 40
3.004178
  1
AC100～240V
 50
180.0
 41
0.718954
  7
KANJI
100
AcDbText
  0
LINE
  5
497
330
1E
100
AcDbEntity
  8
1
  6
Continuous
 62
     7
100
AcDbLine
 10
200.0083559999999
 20
1197.073067999999
 30
0.0
 11
205.01532
 21
1197.073067999999
 31
0.0
  0
LINE
  5
498
330
1E
100
AcDbEntity
  8
1
  6
Continuous
 62
     7
100
AcDbLine
 10
205.01532
 20
1197.073067999999
 30
0.0
 11
205.01532
 21
1199.57655
 31
0.0
  0
ARC
  5
499
330
1E
100
AcDbEntity
  8
1
  6
Continuous
 62
     7
100
AcDbCircle
 10
204.013927
 20
1199.57655
 30
0.0
 40
1.001392999999997
100
AcDbArc
 50
0.0
 51
90.0
  0
LINE
  5
49A
330
1E
100
AcDbEntity
  8
1
  6
Continuous
 62
     7
100
AcDbLine
 10
204.013927
 20
1200.577942
 30
0.0
 11
201.009749
 21
1200.577942
 31
0.0
  0
LINE
  5
49B
330
1E
100
AcDbEntity
  8
1
  6
Continuous
 62
     7
100
AcDbLine
 10
200.0083559999999
 20
1199.57655
 30
0.0
 11
200.0083559999999
 21
1197.073067999999
 31
0.0
  0
ARC
  5
49C
330
1E
100
AcDbEntity
  8
1
  6
Continuous
 62
     7
100
AcDbCircle
 10
201.009749
 20
1199.57655
 30
0.0
 40
1.001392999999997
100
AcDbArc
 50
90.0
 51
180.0
  0
LINE
  5
49D
330
1E
100
AcDbEntity
  8
1
  6
Continuous
 62
     7
100
AcDbLine
 10
205.01532
 20
1184.054962
 30
0.0
 11
200.0083559999999
 21
1184.054962
 31
0.0
  0
LINE
  5
49E
330
1E
100
AcDbEntity
  8
1
  6
Continuous
 62
     7
100
AcDbLine
 10
200.0083559999999
 20
1184.054962
 30
0.0
 11
200.0083559999999
 21
1181.551481
 31
0.0
  0
ARC
  5
49F
330
1E
100
AcDbEntity
  8
1
  6
Continuous
 62
     7
100
AcDbCircle
 10
201.009749
 20
1181.551481
 30
0.0
 40
1.001392999999997
100
AcDbArc
 50
180.0
 51
270.0
  0
LINE
  5
4A0
330
1E
100
AcDbEntity
  8
1
  6
Continuous
 62
     7
100
AcDbLine
 10
201.009749
 20
1180.550088
 30
0.0
 11
204.013927
 21
1180.550088
 31
0.0
  0
LINE
  5
4A1
330
1E
100
AcDbEntity
  8
1
  6
Continuous
 62
     7
100
AcDbLine
 10
205.01532
 20
1181.551481
 30
0.0
 11
205.01532
 21
1184.054962
 31
0.0
  0
ARC
  5
4A2
330
1E
100
AcDbEntity
  8
1
  6
Continuous
 62
     7
100
AcDbCircle
 10
204.013927
 20
1181.551481
 30
0.0
 40
1.001392999999997
100
AcDbArc
 50
270.0
 51
0.0
  0
LINE
  5
4A3
330
1E
100
AcDbEntity
  8
1
  6
Continuous
 62
     7
100
AcDbLine
 10
204.514624
 20
1184.054962
 30
0.0
 11
204.514624
 21
1197.073067999999
 31
0.0
  0
LINE
  5
4A4
330
1E
100
AcDbEntity
  8
1
  6
Continuous
 62
     7
100
AcDbLine
 10
200.5090529999999
 20
1184.054962
 30
0.0
 11
200.5090529999999
 21
1197.073067999999
 31
0.0
  0
LINE
  5
4A5
330
1E
100
AcDbEntity
  8
1
  6
Continuous
 62
     7
100
AcDbLine
 10
197.004178
 20
1202.580728
 30
0.0
 11
197.004178
 21
1178.547301999999
 31
0.0
  0
LINE
  5
4A6
330
1E
100
AcDbEntity
  8
1
  6
Continuous
 62
     7
100
AcDbLine
 10
206.0167129999999
 20
1202.580728
 30
0.0
 11
197.004178
 21
1202.580728
 31
0.0
  0
LINE
  5
4A7
330
1E
100
AcDbEntity
  8
1
  6
Continuous
 62
     7
100
AcDbLine
 10
206.0167129999999
 20
1195.570978999999
 30
0.0
 11
206.0167129999999
 21
1202.580728
 31
0.0
  0
LINE
  5
4A8
330
1E
100
AcDbEntity
  8
1
  6
Continuous
 62
     7
100
AcDbLine
 10
208.0194979999999
 20
1195.570978999999
 30
0.0
 11
206.0167129999999
 21
1195.570978999999
 31
0.0
  0
LINE
  5
4A9
330
1E
100
AcDbEntity
  8
1
  6
Continuous
 62
     7
100
AcDbLine
 10
206.0167129999999
 20
1185.557051999998
 30
0.0
 11
208.0194979999999
 21
1185.557051999998
 31
0.0
  0
LINE
  5
4AA
330
1E
100
AcDbEntity
  8
1
  6
Continuous
 62
     7
100
AcDbLine
 10
206.0167129999999
 20
1178.547301999999
 30
0.0
 11
206.0167129999999
 21
1185.557051999998
 31
0.0
  0
LINE
  5
4AB
330
1E
100
AcDbEntity
  8
1
  6
Continuous
 62
     7
100
AcDbLine
 10
197.004178
 20
1178.547301999999
 30
0.0
 11
206.0167129999999
 21
1178.547301999999
 31
0.0
  0
ARC
  5
4AC
330
1E
100
AcDbEntity
  8
1
  6
Continuous
 62
     7
100
AcDbCircle
 10
210.022283
 20
1180.550088
 30
0.0
 40
2.002784999999998
100
AcDbArc
 50
180.0
 51
270.0
  0
LINE
  5
4AD
330
1E
100
AcDbEntity
  8
1
  6
Continuous
 62
     7
100
AcDbLine
 10
208.0194979999999
 20
1180.550088
 30
0.0
 11
208.0194979999999
 21
1200.577942
 31
0.0
  0
LINE
  5
4AE
330
1E
100
AcDbEntity
  8
1
  6
Continuous
 62
     7
100
AcDbLine
 10
219.073622
 20
1178.547301999999
 30
0.0
 11
210.022283
 21
1178.547301999999
 31
0.0
  0
ARC
  5
4AF
330
1E
100
AcDbEntity
  8
1
  6
Continuous
 62
     7
100
AcDbCircle
 10
219.073622
 20
1180.550088
 30
0.0
 40
2.002784999999998
100
AcDbArc
 50
270.0
 51
321.3401919999999
  0
LINE
  5
4B0
330
1E
100
AcDbEntity
  8
1
  6
Continuous
 62
     7
100
AcDbLine
 10
223.6029089999999
 20
1183.005675
 30
0.0
 11
220.637535
 21
1179.298958
 31
0.0
  0
ARC
  5
4B1
330
1E
100
AcDbEntity
  8
1
  6
Continuous
 62
     7
100
AcDbCircle
 10
222.0389959999998
 20
1184.256805
 30
0.0
 40
2.002784999999998
100
AcDbArc
 50
321.3401919999999
 51
0.0
  0
LINE
  5
4B2
330
1E
100
AcDbEntity
  8
1
  6
Continuous
 62
     7
100
AcDbLine
 10
224.0417819999999
 20
1196.871225
 30
0.0
 11
224.0417819999999
 21
1184.256805
 31
0.0
  0
ARC
  5
4B3
330
1E
100
AcDbEntity
  8
1
  6
Continuous
 62
     7
100
AcDbCircle
 10
222.0389959999998
 20
1196.871225
 30
0.0
 40
2.002784999999998
100
AcDbArc
 50
0.0
 51
38.65980799999999
  0
LINE
  5
4B4
330
1E
100
AcDbEntity
  8
1
  6
Continuous
 62
     7
100
AcDbLine
 10
220.637535
 20
1201.829071999997
 30
0.0
 11
223.6029089999999
 21
1198.122354999997
 31
0.0
  0
ARC
  5
4B5
330
1E
100
AcDbEntity
  8
1
  6
Continuous
 62
     7
100
AcDbCircle
 10
219.073622
 20
1200.577942
 30
0.0
 40
2.002784999999998
100
AcDbArc
 50
38.65980799999999
 51
90.0
  0
LINE
  5
4B6
330
1E
100
AcDbEntity
  8
1
  6
Continuous
 62
     7
100
AcDbLine
 10
210.022283
 20
1202.580728
 30
0.0
 11
219.073622
 21
1202.580728
 31
0.0
  0
ARC
  5
4B7
330
1E
100
AcDbEntity
  8
1
  6
Continuous
 62
     7
100
AcDbCircle
 10
210.022283
 20
1200.577942
 30
0.0
 40
2.002784999999998
100
AcDbArc
 50
90.0
 51
180.0
  0
ARC
  5
4B8
330
1E
100
AcDbEntity
  8
1
  6
Continuous
 62
     7
100
AcDbCircle
 10
196.002785
 20
1177.54591
 30
0.0
 40
2.002784999999998
100
AcDbArc
 50
180.0
 51
270.0
  0
LINE
  5
4B9
330
1E
100
AcDbEntity
  8
1
  6
Continuous
 62
     7
100
AcDbLine
 10
194.0
 20
1203.58212
 30
0.0
 11
194.0
 21
1177.54591
 31
0.0
  0
ARC
  5
4BA
330
1E
100
AcDbEntity
  8
1
  6
Continuous
 62
     7
100
AcDbCircle
 10
196.002785
 20
1203.58212
 30
0.0
 40
2.002784999999998
100
AcDbArc
 50
90.0
 51
180.0
  0
LINE
  5
4BB
330
1E
100
AcDbEntity
  8
1
  6
Continuous
 62
     7
100
AcDbLine
 10
225.043174
 20
1205.584906
 30
0.0
 11
196.002785
 21
1205.584906
 31
0.0
  0
ARC
  5
4BC
330
1E
100
AcDbEntity
  8
1
  6
Continuous
 62
     7
100
AcDbCircle
 10
225.043174
 20
1203.58212
 30
0.0
 40
2.002784999999998
100
AcDbArc
 50
0.0
 51
90.0
  0
LINE
  5
4BD
330
1E
100
AcDbEntity
  8
1
  6
Continuous
 62
     7
100
AcDbLine
 10
227.04596
 20
1177.54591
 30
0.0
 11
227.04596
 21
1203.58212
 31
0.0
  0
LINE
  5
4BE
330
1E
100
AcDbEntity
  8
1
  6
Continuous
 62
     7
100
AcDbLine
 10
196.002785
 20
1175.543124
 30
0.0
 11
225.043174
 21
1175.543124
 31
0.0
  0
ARC
  5
4BF
330
1E
100
AcDbEntity
  8
1
  6
Continuous
 62
     7
100
AcDbCircle
 10
225.043174
 20
1177.54591
 30
0.0
 40
2.002784999999998
100
AcDbArc
 50
270.0
 51
0.0
  0
ARC
  5
4C0
330
1E
100
AcDbEntity
  8
1
  6
Continuous
 62
     7
100
AcDbCircle
 10
196.002785
 20
1177.54591
 30
0.0
 40
1.001392999999997
100
AcDbArc
 50
180.0
 51
270.0
  0
LINE
  5
4C1
330
1E
100
AcDbEntity
  8
1
  6
Continuous
 62
     7
100
AcDbLine
 10
195.001393
 20
1203.58212
 30
0.0
 11
195.001393
 21
1177.54591
 31
0.0
  0
ARC
  5
4C2
330
1E
100
AcDbEntity
  8
1
  6
Continuous
 62
     7
100
AcDbCircle
 10
196.002785
 20
1203.58212
 30
0.0
 40
1.001392999999997
100
AcDbArc
 50
90.0
 51
180.0
  0
LINE
  5
4C3
330
1E
100
AcDbEntity
  8
1
  6
Continuous
 62
     7
100
AcDbLine
 10
225.043174
 20
1204.583513
 30
0.0
 11
196.002785
 21
1204.583513
 31
0.0
  0
ARC
  5
4C4
330
1E
100
AcDbEntity
  8
1
  6
Continuous
 62
     7
100
AcDbCircle
 10
225.043174
 20
1203.58212
 30
0.0
 40
1.001392999999997
100
AcDbArc
 50
0.0
 51
90.0
  0
LINE
  5
4C5
330
1E
100
AcDbEntity
  8
1
  6
Continuous
 62
     7
100
AcDbLine
 10
226.044567
 20
1177.54591
 30
0.0
 11
226.044567
 21
1203.58212
 31
0.0
  0
LINE
  5
4C6
330
1E
100
AcDbEntity
  8
1
  6
Continuous
 62
     7
100
AcDbLine
 10
196.002785
 20
1176.544517
 30
0.0
 11
225.043174
 21
1176.544517
 31
0.0
  0
ARC
  5
4C7
330
1E
100
AcDbEntity
  8
1
  6
Continuous
 62
     7
100
AcDbCircle
 10
225.043174
 20
1177.54591
 30
0.0
 40
1.001392999999997
100
AcDbArc
 50
270.0
 51
0.0
  0
LINE
  5
4C8
330
1E
100
AcDbEntity
  8
1
  6
Continuous
 62
     7
100
AcDbLine
 10
210.022283
 20
1196.572371
 30
0.0
 11
217.032033
 21
1196.572371
 31
0.0
  0
LINE
  5
4C9
330
1E
100
AcDbEntity
  8
1
  6
Continuous
 62
     7
100
AcDbLine
 10
217.032033
 20
1196.572371
 30
0.0
 11
217.032033
 21
1198.575157
 31
0.0
  0
LINE
  5
4CA
330
1E
100
AcDbEntity
  8
1
  6
Continuous
 62
     7
100
AcDbLine
 10
217.032033
 20
1198.575157
 30
0.0
 11
210.022283
 21
1198.575157
 31
0.0
  0
LINE
  5
4CB
330
1E
100
AcDbEntity
  8
1
  6
Continuous
 62
     7
100
AcDbLine
 10
210.022283
 20
1198.575157
 30
0.0
 11
210.022283
 21
1196.572371
 31
0.0
  0
LINE
  5
4CC
330
1E
100
AcDbEntity
  8
1
  6
Continuous
 62
     7
100
AcDbLine
 10
210.022283
 20
1182.552873
 30
0.0
 11
217.032033
 21
1182.552873
 31
0.0
  0
LINE
  5
4CD
330
1E
100
AcDbEntity
  8
1
  6
Continuous
 62
     7
100
AcDbLine
 10
217.032033
 20
1182.552873
 30
0.0
 11
217.032033
 21
1184.555658999999
 31
0.0
  0
LINE
  5
4CE
330
1E
100
AcDbEntity
  8
1
  6
Continuous
 62
     7
100
AcDbLine
 10
217.032033
 20
1184.555658999999
 30
0.0
 11
210.022283
 21
1184.555658999999
 31
0.0
  0
LINE
  5
4CF
330
1E
100
AcDbEntity
  8
1
  6
Continuous
 62
     7
100
AcDbLine
 10
210.022283
 20
1184.555658999999
 30
0.0
 11
210.022283
 21
1182.552873
 31
0.0
  0
LINE
  5
4D0
330
1E
100
AcDbEntity
  8
1
  6
Continuous
 62
     7
100
AcDbLine
 10
215.029247
 20
1189.562622
 30
0.0
 11
222.0389959999998
 21
1189.562622
 31
0.0
  0
LINE
  5
4D1
330
1E
100
AcDbEntity
  8
1
  6
Continuous
 62
     7
100
AcDbLine
 10
222.0389959999998
 20
1189.562622
 30
0.0
 11
222.0389959999998
 21
1191.565407999999
 31
0.0
  0
LINE
  5
4D2
330
1E
100
AcDbEntity
  8
1
  6
Continuous
 62
     7
100
AcDbLine
 10
222.0389959999998
 20
1191.565407999999
 30
0.0
 11
215.029247
 21
1191.565407999999
 31
0.0
  0
LINE
  5
4D3
330
1E
100
AcDbEntity
  8
1
  6
Continuous
 62
     7
100
AcDbLine
 10
215.029247
 20
1191.565407999999
 30
0.0
 11
215.029247
 21
1189.562622
 31
0.0
  0
CIRCLE
  5
4D4
330
1E
100
AcDbEntity
  8
1
  6
Continuous
 62
     7
100
AcDbCircle
 10
214.5285509999999
 20
1165.095350999999
 30
0.0
 40
2.002784999999998
  0
LINE
  5
4D5
330
1E
100
AcDbEntity
  8
1
  6
Continuous
 62
     7
100
AcDbLine
 10
205.5160159999999
 20
1165.095350999999
 30
0.0
 11
208.520194
 21
1165.095350999999
 31
0.0
  0
LINE
  5
4D6
330
1E
100
AcDbEntity
  8
1
  6
Continuous
 62
     7
100
AcDbLine
 10
204.514624
 20
1170.102315
 30
0.0
 11
204.514624
 21
1160.088388
 31
0.0
  0
LINE
  5
4D7
330
1E
100
AcDbEntity
  8
1
  6
Continuous
 62
     7
100
AcDbLine
 10
218.534122
 20
1170.102315
 30
0.0
 11
202.5118379999999
 21
1170.102315
 31
0.0
  0
LINE
  5
4D8
330
1E
100
AcDbEntity
  8
1
  6
Continuous
 62
     7
100
AcDbLine
 10
202.5118379999999
 20
1170.102315
 30
0.0
 11
202.5118379999999
 21
1160.088388
 31
0.0
  0
LINE
  5
4D9
330
1E
100
AcDbEntity
  8
1
  6
Continuous
 62
     7
100
AcDbLine
 10
202.5118379999999
 20
1160.088388
 30
0.0
 11
218.534122
 21
1160.088388
 31
0.0
  0
LINE
  5
4DA
330
1E
100
AcDbEntity
  8
1
  6
Continuous
 62
     7
100
AcDbLine
 10
218.534122
 20
1160.088388
 30
0.0
 11
218.534122
 21
1170.102315
 31
0.0
  0
LINE
  5
4DB
330
1E
100
AcDbEntity
  8
1
  6
Continuous
 62
     7
100
AcDbLine
 10
221.0376029999999
 20
1172.605797
 30
0.0
 11
200.0083559999999
 21
1172.605797
 31
0.0
  0
LINE
  5
4DC
330
1E
100
AcDbEntity
  8
1
  6
Continuous
 62
     7
100
AcDbLine
 10
200.0083559999999
 20
1172.605797
 30
0.0
 11
200.0083559999999
 21
1157.584906
 31
0.0
  0
LINE
  5
4DD
330
1E
100
AcDbEntity
  8
1
  6
Continuous
 62
     7
100
AcDbLine
 10
200.0083559999999
 20
1157.584906
 30
0.0
 11
221.0376029999999
 21
1157.584906
 31
0.0
  0
LINE
  5
4DE
330
1E
100
AcDbEntity
  8
1
  6
Continuous
 62
     7
100
AcDbLine
 10
221.0376029999999
 20
1157.584906
 30
0.0
 11
221.0376029999999
 21
1172.605797
 31
0.0
  0
TEXT
  5
4DF
330
1E
100
AcDbEntity
  8
1
  6
Continuous
 62
     7
100
AcDbText
 10
234.5157529999999
 20
1163.448760999999
 30
0.0
 40
3.004178
  1
POWER
 50
180.0
 41
0.666667
  7
KANJI
100
AcDbText
  0
TEXT
  5
4E0
330
1E
100
AcDbEntity
  8
1
  6
Continuous
 62
     7
100
AcDbText
 10
230.5101819999999
 20
1167.455723999998
 30
0.0
 40
3.004178
  1
OFF
 50
180.0
 41
0.666667
  7
KANJI
100
AcDbText
  0
TEXT
  5
4E1
330
1E
100
AcDbEntity
  8
1
  6
Continuous
 62
     7
100
AcDbText
 10
196.026199
 20
1165.541326
 30
0.0
 40
3.004178
  1
ON
 50
180.0
 41
0.666667
  7
KANJI
100
AcDbText
  0
TEXT
  5
4E2
330
1E
100
AcDbEntity
  8
1
  6
Continuous
 62
     7
100
AcDbText
 10
400.789988
 20
1164.845749
 30
0.0
 40
3.004178
  1
LAN/MOUSE
 50
180.0
 41
0.666667
  7
KANJI
100
AcDbText
  0
TEXT
  5
4E3
330
1E
100
AcDbEntity
  8
1
  6
Continuous
 62
     7
100
AcDbText
 10
363.784417
 20
1183.509224
 30
0.0
 40
3.004178
  1
ALARM
 50
180.0
 41
0.666667
  7
KANJI
100
AcDbText
  0
TEXT
  5
4E4
330
1E
100
AcDbEntity
  8
1
  6
Continuous
 62
     7
100
AcDbText
 10
425.7858099999998
 20
1183.509224
 30
0.0
 40
3.004178
  1
RS-232
 50
180.0
 41
0.666667
  7
KANJI
100
AcDbText
  0
TEXT
  5
4E5
330
1E
100
AcDbEntity
  8
1
  6
Continuous
 62
     7
100
AcDbText
 10
448.783024
 20
1180.118466999998
 30
0.0
 40
3.004178
  1
PS/2
 50
180.0
 41
0.666667
  7
KANJI
100
AcDbText
  0
TEXT
  5
4E6
330
1E
100
AcDbEntity
  8
1
  6
Continuous
 62
     7
100
AcDbText
 10
449.784417
 20
1183.509224
 30
0.0
 40
3.004178
  1
MOUSE
 50
180.0
 41
0.666667
  7
KANJI
100
AcDbText
  0
TEXT
  5
4E7
330
1E
100
AcDbEntity
  8
1
  6
Continuous
 62
     7
100
AcDbText
 10
497.784417
 20
1180.118466999998
 30
0.0
 40
3.004178
  1
AUDIO
 50
180.0
 41
0.666667
  7
KANJI
100
AcDbText
  0
TEXT
  5
4E8
330
1E
100
AcDbEntity
  8
1
  6
Continuous
 62
     7
100
AcDbText
 10
495.781632
 20
1183.509224
 30
0.0
 40
3.004178
  1
OUT
 50
180.0
 41
0.666667
  7
KANJI
100
AcDbText
  0
CIRCLE
  5
4E9
330
1E
100
AcDbEntity
  8
1
  6
Continuous
 62
     7
100
AcDbCircle
 10
514.0
 20
1183.584906
 30
0.0
 40
2.5
  0
LINE
  5
4EA
330
1E
100
AcDbEntity
  8
1
  6
Continuous
 62
     7
100
AcDbLine
 10
512.5
 20
1183.584906
 30
0.0
 11
515.5
 21
1183.584906
 31
0.0
  0
LINE
  5
4EB
330
1E
100
AcDbEntity
  8
1
  6
Continuous
 62
     7
100
AcDbLine
 10
514.0
 20
1185.084905999999
 30
0.0
 11
514.0
 21
1182.084906
 31
0.0
  0
TEXT
  5
4EC
330
1E
100
AcDbEntity
  8
1
  6
Continuous
 62
     7
100
AcDbText
 10
507.7788459999998
 20
1170.000867
 30
0.0
 40
3.004178
  1
3
 50
180.0
 41
0.666667
  7
KANJI
100
AcDbText
  0
TEXT
  5
4ED
330
1E
100
AcDbEntity
  8
1
  6
Continuous
 62
     7
100
AcDbText
 10
521.778846
 20
1170.000867
 30
0.0
 40
3.004178
  1
1
 50
180.0
 41
0.666667
  7
KANJI
100
AcDbText
  0
TEXT
  5
4EE
330
1E
100
AcDbEntity
  8
1
  6
Continuous
 62
     7
100
AcDbText
 10
521.778846
 20
1200.42571
 30
0.0
 40
3.004178
  1
2
 50
180.0
 41
0.666667
  7
KANJI
100
AcDbText
  0
TEXT
  5
4EF
330
1E
100
AcDbEntity
  8
1
  6
Continuous
 62
     7
100
AcDbText
 10
507.7788459999998
 20
1200.42571
 30
0.0
 40
3.004178
  1
4
 50
180.0
 41
0.666667
  7
KANJI
100
AcDbText
  0
TEXT
  5
4F0
330
1E
100
AcDbEntity
  8
1
  6
Continuous
 62
     7
100
AcDbText
 10
599.778846
 20
1200.926407
 30
0.0
 40
3.004178
  1
2
 50
180.0
 41
0.666667
  7
KANJI
100
AcDbText
  0
TEXT
  5
4F1
330
1E
100
AcDbEntity
  8
1
  6
Continuous
 62
     7
100
AcDbText
 10
599.778846
 20
1163.500171
 30
0.0
 40
3.004178
  1
1
 50
180.0
 41
0.666667
  7
KANJI
100
AcDbText
  0
TEXT
  5
4F2
330
1E
100
AcDbEntity
  8
1
  6
Continuous
 62
     7
100
AcDbText
 10
579.778846
 20
1163.500171
 30
0.0
 40
3.004178
  1
3
 50
180.0
 41
0.666667
  7
KANJI
100
AcDbText
  0
TEXT
  5
4F3
330
1E
100
AcDbEntity
  8
1
  6
Continuous
 62
     7
100
AcDbText
 10
579.778846
 20
1200.926407
 30
0.0
 40
3.004178
  1
4
 50
180.0
 41
0.666667
  7
KANJI
100
AcDbText
  0
TEXT
  5
4F4
330
1E
100
AcDbEntity
  8
1
  6
Continuous
 62
     7
100
AcDbText
 10
596.788595
 20
1161.452807999997
 30
0.0
 40
3.004178
  1
VIDEO IN
 50
180.0
 41
0.7017540000000002
  7
KANJI
100
AcDbText
  0
TEXT
  5
4F5
330
1E
100
AcDbEntity
  8
1
  6
Continuous
 62
     7
100
AcDbText
 10
562.783024
 20
1161.452807999997
 30
0.0
 40
3.004178
  1
MAIN
 50
180.0
 41
0.666667
  7
KANJI
100
AcDbText
  0
TEXT
  5
4F6
330
1E
100
AcDbEntity
  8
1
  6
Continuous
 62
     7
100
AcDbText
 10
521.788595
 20
1161.452807999997
 30
0.0
 40
3.004178
  1
AUDIO IN
 50
180.0
 41
0.7017540000000002
  7
KANJI
100
AcDbText
  0
CIRCLE
  5
4F7
330
1E
100
AcDbEntity
  8
1
  6
Continuous
 62
     7
100
AcDbCircle
 10
567.0
 20
1180.584905999997
 30
0.0
 40
2.5
  0
LINE
  5
4F8
330
1E
100
AcDbEntity
  8
1
  6
Continuous
 62
     7
100
AcDbLine
 10
565.5
 20
1180.584905999997
 30
0.0
 11
568.5
 21
1180.584905999997
 31
0.0
  0
LINE
  5
4F9
330
1E
100
AcDbEntity
  8
1
  6
Continuous
 62
     7
100
AcDbLine
 10
567.0
 20
1182.084906
 30
0.0
 11
567.0
 21
1179.084906
 31
0.0
  0
CIRCLE
  5
4FA
330
1E
100
AcDbEntity
  8
1
  6
Continuous
 62
     7
100
AcDbCircle
 10
587.0
 20
1180.584905999997
 30
0.0
 40
2.5
  0
LINE
  5
4FB
330
1E
100
AcDbEntity
  8
1
  6
Continuous
 62
     7
100
AcDbLine
 10
585.5
 20
1180.584905999997
 30
0.0
 11
588.4999999999998
 21
1180.584905999997
 31
0.0
  0
LINE
  5
4FC
330
1E
100
AcDbEntity
  8
1
  6
Continuous
 62
     7
100
AcDbLine
 10
587.0
 20
1182.084906
 30
0.0
 11
587.0
 21
1179.084906
 31
0.0
  0
CIRCLE
  5
4FD
330
1E
100
AcDbEntity
  8
1
  6
Continuous
 62
     7
100
AcDbCircle
 10
607.0
 20
1180.584905999997
 30
0.0
 40
2.5
  0
LINE
  5
4FE
330
1E
100
AcDbEntity
  8
1
  6
Continuous
 62
     7
100
AcDbLine
 10
605.4999999999997
 20
1180.584905999997
 30
0.0
 11
608.4999999999999
 21
1180.584905999997
 31
0.0
  0
LINE
  5
4FF
330
1E
100
AcDbEntity
  8
1
  6
Continuous
 62
     7
100
AcDbLine
 10
607.0
 20
1182.084906
 30
0.0
 11
607.0
 21
1179.084906
 31
0.0
  0
LINE
  5
500
330
1E
100
AcDbEntity
  8
1
  6
Continuous
 62
     7
100
AcDbLine
 10
553.49234
 20
1160.084906
 30
0.0
 11
553.0
 21
1160.084906
 31
0.0
  0
LINE
  5
501
330
1E
100
AcDbEntity
  8
1
  6
Continuous
 62
     7
100
AcDbLine
 10
551.0
 20
1162.084906
 30
0.0
 11
551.0
 21
1178.084906
 31
0.0
  0
ARC
  5
502
330
1E
100
AcDbEntity
  8
1
  6
Continuous
 62
     7
100
AcDbCircle
 10
553.0
 20
1162.084906
 30
0.0
 40
2.0
100
AcDbArc
 50
180.0
 51
270.0
  0
LINE
  5
503
330
1E
100
AcDbEntity
  8
1
  6
Continuous
 62
     7
100
AcDbLine
 10
551.0
 20
1183.084906
 30
0.0
 11
551.0
 21
1200.0
 31
0.0
  0
ARC
  5
504
330
1E
100
AcDbEntity
  8
1
  6
Continuous
 62
     7
100
AcDbCircle
 10
553.0
 20
1200.0
 30
0.0
 40
2.0
100
AcDbArc
 50
90.0
 51
180.0
  0
LINE
  5
505
330
1E
100
AcDbEntity
  8
1
  6
Continuous
 62
     7
100
AcDbLine
 10
553.0
 20
1202.0
 30
0.0
 11
565.0
 21
1202.0
 31
0.0
  0
LINE
  5
506
330
1E
100
AcDbEntity
  8
1
  6
Continuous
 62
     7
100
AcDbLine
 10
567.0
 20
1200.0
 30
0.0
 11
567.0
 21
1183.084906
 31
0.0
  0
ARC
  5
507
330
1E
100
AcDbEntity
  8
1
  6
Continuous
 62
     7
100
AcDbCircle
 10
565.0
 20
1200.0
 30
0.0
 40
2.0
100
AcDbArc
 50
0.0
 51
90.0
  0
LINE
  5
508
330
1E
100
AcDbEntity
  8
1
  6
Continuous
 62
     7
100
AcDbLine
 10
567.0
 20
1178.084906
 30
0.0
 11
567.0
 21
1162.084906
 31
0.0
  0
LINE
  5
509
330
1E
100
AcDbEntity
  8
1
  6
Continuous
 62
     7
100
AcDbLine
 10
565.0
 20
1160.084906
 30
0.0
 11
564.50766
 21
1160.084906
 31
0.0
  0
ARC
  5
50A
330
1E
100
AcDbEntity
  8
1
  6
Continuous
 62
     7
100
AcDbCircle
 10
565.0
 20
1162.084906
 30
0.0
 40
2.0
100
AcDbArc
 50
270.0
 51
0.0
  0
LINE
  5
50B
330
1E
100
AcDbEntity
  8
1
  6
Continuous
 62
     7
100
AcDbLine
 10
579.0
 20
1160.084906
 30
0.0
 11
573.0
 21
1160.084906
 31
0.0
  0
LINE
  5
50C
330
1E
100
AcDbEntity
  8
1
  6
Continuous
 62
     7
100
AcDbLine
 10
571.0
 20
1162.084906
 30
0.0
 11
571.0
 21
1178.084906
 31
0.0
  0
ARC
  5
50D
330
1E
100
AcDbEntity
  8
1
  6
Continuous
 62
     7
100
AcDbCircle
 10
573.0
 20
1162.084906
 30
0.0
 40
2.0
100
AcDbArc
 50
180.0
 51
270.0
  0
LINE
  5
50E
330
1E
100
AcDbEntity
  8
1
  6
Continuous
 62
     7
100
AcDbLine
 10
571.0
 20
1183.084906
 30
0.0
 11
571.0
 21
1200.0
 31
0.0
  0
ARC
  5
50F
330
1E
100
AcDbEntity
  8
1
  6
Continuous
 62
     7
100
AcDbCircle
 10
573.0
 20
1200.0
 30
0.0
 40
2.0
100
AcDbArc
 50
90.0
 51
180.0
  0
LINE
  5
510
330
1E
100
AcDbEntity
  8
1
  6
Continuous
 62
     7
100
AcDbLine
 10
573.0
 20
1202.0
 30
0.0
 11
605.0
 21
1202.0
 31
0.0
  0
LINE
  5
511
330
1E
100
AcDbEntity
  8
1
  6
Continuous
 62
     7
100
AcDbLine
 10
607.0
 20
1200.0
 30
0.0
 11
607.0
 21
1183.084906
 31
0.0
  0
ARC
  5
512
330
1E
100
AcDbEntity
  8
1
  6
Continuous
 62
     7
100
AcDbCircle
 10
605.0
 20
1200.0
 30
0.0
 40
2.0
100
AcDbArc
 50
0.0
 51
90.0
  0
LINE
  5
513
330
1E
100
AcDbEntity
  8
1
  6
Continuous
 62
     7
100
AcDbLine
 10
607.0
 20
1178.084906
 30
0.0
 11
607.0
 21
1162.084906
 31
0.0
  0
LINE
  5
514
330
1E
100
AcDbEntity
  8
1
  6
Continuous
 62
     7
100
AcDbLine
 10
605.0
 20
1160.084906
 30
0.0
 11
599.0
 21
1160.084906
 31
0.0
  0
ARC
  5
515
330
1E
100
AcDbEntity
  8
1
  6
Continuous
 62
     7
100
AcDbCircle
 10
605.0
 20
1162.084906
 30
0.0
 40
2.0
100
AcDbArc
 50
270.0
 51
0.0
  0
LINE
  5
516
330
1E
100
AcDbEntity
  8
1
  6
Continuous
 62
     7
100
AcDbLine
 10
502.994429
 20
1160.084906
 30
0.0
 11
501.0
 21
1160.084906
 31
0.0
  0
ARC
  5
517
330
1E
100
AcDbEntity
  8
1
  6
Continuous
 62
     7
100
AcDbCircle
 10
501.0
 20
1162.084906
 30
0.0
 40
2.0
100
AcDbArc
 50
180.0
 51
270.0
  0
LINE
  5
518
330
1E
100
AcDbEntity
  8
1
  6
Continuous
 62
     7
100
AcDbLine
 10
499.0
 20
1162.084906
 30
0.0
 11
499.0
 21
1200.0
 31
0.0
  0
ARC
  5
519
330
1E
100
AcDbEntity
  8
1
  6
Continuous
 62
     7
100
AcDbCircle
 10
501.0
 20
1200.0
 30
0.0
 40
2.0
100
AcDbArc
 50
90.0
 51
180.0
  0
LINE
  5
51A
330
1E
100
AcDbEntity
  8
1
  6
Continuous
 62
     7
100
AcDbLine
 10
501.0
 20
1202.0
 30
0.0
 11
527.0
 21
1202.0
 31
0.0
  0
ARC
  5
51B
330
1E
100
AcDbEntity
  8
1
  6
Continuous
 62
     7
100
AcDbCircle
 10
527.0
 20
1200.0
 30
0.0
 40
2.0
100
AcDbArc
 50
0.0
 51
90.0
  0
LINE
  5
51C
330
1E
100
AcDbEntity
  8
1
  6
Continuous
 62
     7
100
AcDbLine
 10
529.0
 20
1200.0
 30
0.0
 11
529.0
 21
1162.084906
 31
0.0
  0
LINE
  5
51D
330
1E
100
AcDbEntity
  8
1
  6
Continuous
 62
     7
100
AcDbLine
 10
527.0
 20
1160.084906
 30
0.0
 11
525.005571
 21
1160.084906
 31
0.0
  0
ARC
  5
51E
330
1E
100
AcDbEntity
  8
1
  6
Continuous
 62
     7
100
AcDbCircle
 10
527.0
 20
1162.084906
 30
0.0
 40
2.0
100
AcDbArc
 50
270.0
 51
0.0
  0
TEXT
  5
51F
330
1E
100
AcDbEntity
  8
1
  6
Continuous
 62
     7
100
AcDbText
 10
503.8917210183453
 20
512.1433532991386
 30
0.0
 40
3.2
  1
ESC
 41
0.666667
  7
KANJI
100
AcDbText
  0
TEXT
  5
520
330
1E
100
AcDbEntity
  8
1
  6
Continuous
 62
     7
100
AcDbText
 10
485.6260734619182
 20
512.1433532991386
 30
0.0
 40
3.2
  1
EJECT
 41
0.666667
  7
KANJI
100
AcDbText
  0
TEXT
  5
521
330
1E
100
AcDbEntity
  8
1
  6
Continuous
 62
     7
100
AcDbText
 10
471.8373004552232
 20
511.9643463364003
 30
0.0
 40
3.2
  1
SEQ
 41
0.666667
  7
KANJI
100
AcDbText
  0
TEXT
  5
522
330
1E
100
AcDbEntity
  8
1
  6
Continuous
 62
     7
100
AcDbText
 10
453.3925807470275
 20
507.3101825928874
 30
0.0
 40
3.2
  1
POWER
 41
0.666667
  7
KANJI
100
AcDbText
  0
TEXT
  5
523
330
1E
100
AcDbEntity
  8
1
  6
Continuous
 62
     7
100
AcDbText
 10
426.1731840911388
 20
510.8903080175073
 30
0.0
 40
3.2
  1
4
 41
0.666667
  7
KANJI
100
AcDbText
  0
TEXT
  5
524
330
1E
100
AcDbEntity
  8
1
  6
Continuous
 62
     7
100
AcDbText
 10
410.2355149394277
 20
511.0693149802455
 30
0.0
 40
3.2
  1
3
 41
0.666667
  7
KANJI
100
AcDbText
  0
TEXT
  5
525
330
1E
100
AcDbEntity
  8
1
  6
Continuous
 62
     7
100
AcDbText
 10
394.2596548667721
 20
511.0142099254757
 30
0.0
 40
3.2
  1
2
 41
0.666667
  7
KANJI
100
AcDbText
  0
TEXT
  5
526
330
1E
100
AcDbEntity
  8
1
  6
Continuous
 62
     7
100
AcDbText
 10
378.3601665280729
 20
511.2483219429837
 30
0.0
 40
3.2
  1
1
 41
0.666667
  7
KANJI
100
AcDbText
  0
TEXT
  5
527
330
1E
100
AcDbEntity
  8
1
  6
Continuous
 62
     7
100
AcDbText
 10
357.3601864740592
 20
507.2010593288123
 30
0.0
 40
3.2
  1
BACKUP
 41
0.666667
  7
KANJI
100
AcDbText
  0
TEXT
  5
528
330
1E
100
AcDbEntity
  8
1
  6
Continuous
 62
     7
100
AcDbText
 10
517.6804940250413
 20
507.6681930608283
 30
0.0
 40
3.2
  1
HDD 1
 41
0.7246380000000002
  7
KANJI
100
AcDbText
  0
TEXT
  5
529
330
1E
100
AcDbEntity
  8
1
  6
Continuous
 62
     7
100
AcDbText
 10
517.8595712307759
 20
489.7675624801941
 30
0.0
 40
3.2
  1
HDD 2
 41
0.7246380000000002
  7
KANJI
100
AcDbText
  0
TEXT
  5
52A
330
1E
100
AcDbEntity
  8
1
  6
Continuous
 62
     7
100
AcDbText
 10
485.2679241044161
 20
489.9465694429323
 30
0.0
 40
3.2
  1
BACKUP
 41
0.666667
  7
KANJI
100
AcDbText
  0
TEXT
  5
52B
330
1E
100
AcDbEntity
  8
1
  6
Continuous
 62
     7
100
AcDbText
 10
502.8172729458383
 20
489.9465694429323
 30
0.0
 40
3.2
  1
MENU
 41
0.666667
  7
KANJI
100
AcDbText
  0
TEXT
  5
52C
330
1E
100
AcDbEntity
  8
1
  6
Continuous
 62
     7
100
AcDbText
 10
471.8373004552232
 20
489.9465694429323
 30
0.0
 40
3.2
  1
REC
 41
0.666667
  7
KANJI
100
AcDbText
  0
TEXT
  5
52D
330
1E
100
AcDbEntity
  8
1
  6
Continuous
 62
     7
100
AcDbText
 10
455.8996313035121
 20
489.7675624801941
 30
0.0
 40
3.2
  1
REC
 41
0.666667
  7
KANJI
100
AcDbText
  0
TEXT
  5
52E
330
1E
100
AcDbEntity
  8
1
  6
Continuous
 62
     7
100
AcDbText
 10
358.3037721841336
 20
489.7675624801941
 30
0.0
 40
3.2
  1
ALARM
 41
0.666667
  7
KANJI
100
AcDbText
  0
LINE
  5
52F
330
1E
100
AcDbEntity
  8
1
  6
Continuous
 62
     7
100
AcDbLine
 10
441.1999999999999
 20
514.68015
 30
0.0
 11
441.1999999999999
 21
511.0801499999998
 31
0.0
  0
LINE
  5
530
330
1E
100
AcDbEntity
  8
1
  6
Continuous
 62
     7
100
AcDbLine
 10
441.1999999999999
 20
511.0801499999998
 30
0.0
 11
444.8
 21
511.0801499999998
 31
0.0
  0
LINE
  5
531
330
1E
100
AcDbEntity
  8
1
  6
Continuous
 62
     7
100
AcDbLine
 10
444.8
 20
511.0801499999998
 30
0.0
 11
444.8
 21
514.68015
 31
0.0
  0
LINE
  5
532
330
1E
100
AcDbEntity
  8
1
  6
Continuous
 62
     7
100
AcDbLine
 10
444.8
 20
514.68015
 30
0.0
 11
441.1999999999999
 21
514.68015
 31
0.0
  0
LINE
  5
533
330
1E
100
AcDbEntity
  8
1
  6
Continuous
 62
     7
100
AcDbLine
 10
441.1999999999999
 20
512.8801499999998
 30
0.0
 11
444.8
 21
512.8801499999998
 31
0.0
  0
LINE
  5
534
330
1E
100
AcDbEntity
  8
1
  6
Continuous
 62
     7
100
AcDbLine
 10
443.0
 20
511.0801499999998
 30
0.0
 11
443.0
 21
514.68015
 31
0.0
  0
LINE
  5
535
330
1E
100
AcDbEntity
  8
1
  6
Continuous
 62
     7
100
AcDbLine
 10
443.0000019999998
 20
491.214354
 30
0.0
 11
440.840002
 21
489.967278
 31
0.0
  0
LINE
  5
536
330
1E
100
AcDbEntity
  8
1
  6
Continuous
 62
     7
100
AcDbLine
 10
440.840002
 20
489.967278
 30
0.0
 11
440.840002
 21
492.4614319999998
 31
0.0
  0
LINE
  5
537
330
1E
100
AcDbEntity
  8
1
  6
Continuous
 62
     7
100
AcDbLine
 10
440.840002
 20
492.4614319999998
 30
0.0
 11
443.000003
 21
491.2143549999998
 31
0.0
  0
LINE
  5
538
330
1E
100
AcDbEntity
  8
1
  6
Continuous
 62
     7
100
AcDbLine
 10
445.160003
 20
491.214354
 30
0.0
 11
443.000003
 21
489.967278
 31
0.0
  0
LINE
  5
539
330
1E
100
AcDbEntity
  8
1
  6
Continuous
 62
     7
100
AcDbLine
 10
443.000003
 20
489.967278
 30
0.0
 11
443.000003
 21
492.4614319999998
 31
0.0
  0
LINE
  5
53A
330
1E
100
AcDbEntity
  8
1
  6
Continuous
 62
     7
100
AcDbLine
 10
443.000003
 20
492.4614319999998
 30
0.0
 11
445.1600049999998
 21
491.2143549999998
 31
0.0
  0
LINE
  5
53B
330
1E
100
AcDbEntity
  8
1
  6
Continuous
 62
     7
100
AcDbLine
 10
428.08
 20
491.214353
 30
0.0
 11
425.9199999999998
 21
489.9672759999998
 31
0.0
  0
LINE
  5
53C
330
1E
100
AcDbEntity
  8
1
  6
Continuous
 62
     7
100
AcDbLine
 10
425.9199999999998
 20
489.9672759999998
 30
0.0
 11
425.9199999999998
 21
492.46143
 31
0.0
  0
LINE
  5
53D
330
1E
100
AcDbEntity
  8
1
  6
Continuous
 62
     7
100
AcDbLine
 10
425.9199999999998
 20
492.46143
 30
0.0
 11
428.080002
 21
491.214353
 31
0.0
  0
LINE
  5
53E
330
1E
100
AcDbEntity
  8
1
  6
Continuous
 62
     7
100
AcDbLine
 10
411.6
 20
492.714353
 30
0.0
 11
411.6
 21
489.714353
 31
0.0
  0
LINE
  5
53F
330
1E
100
AcDbEntity
  8
1
  6
Continuous
 62
     7
100
AcDbLine
 10
411.6
 20
489.714353
 30
0.0
 11
412.8
 21
489.714353
 31
0.0
  0
LINE
  5
540
330
1E
100
AcDbEntity
  8
1
  6
Continuous
 62
     7
100
AcDbLine
 10
412.8
 20
489.714353
 30
0.0
 11
412.8
 21
492.714353
 31
0.0
  0
LINE
  5
541
330
1E
100
AcDbEntity
  8
1
  6
Continuous
 62
     7
100
AcDbLine
 10
412.8
 20
492.714353
 30
0.0
 11
411.6
 21
492.714353
 31
0.0
  0
LINE
  5
542
330
1E
100
AcDbEntity
  8
1
  6
Continuous
 62
     7
100
AcDbLine
 10
409.1999999999998
 20
492.714353
 30
0.0
 11
409.1999999999998
 21
489.714353
 31
0.0
  0
LINE
  5
543
330
1E
100
AcDbEntity
  8
1
  6
Continuous
 62
     7
100
AcDbLine
 10
409.1999999999998
 20
489.714353
 30
0.0
 11
410.4
 21
489.714353
 31
0.0
  0
LINE
  5
544
330
1E
100
AcDbEntity
  8
1
  6
Continuous
 62
     7
100
AcDbLine
 10
410.4
 20
489.714353
 30
0.0
 11
410.4
 21
492.714353
 31
0.0
  0
LINE
  5
545
330
1E
100
AcDbEntity
  8
1
  6
Continuous
 62
     7
100
AcDbLine
 10
410.4
 20
492.714353
 30
0.0
 11
409.1999999999998
 21
492.714353
 31
0.0
  0
LINE
  5
546
330
1E
100
AcDbEntity
  8
1
  6
Continuous
 62
     7
100
AcDbLine
 10
393.5
 20
492.714353
 30
0.0
 11
393.5
 21
489.714353
 31
0.0
  0
LINE
  5
547
330
1E
100
AcDbEntity
  8
1
  6
Continuous
 62
     7
100
AcDbLine
 10
393.5
 20
489.714353
 30
0.0
 11
396.5
 21
489.714353
 31
0.0
  0
LINE
  5
548
330
1E
100
AcDbEntity
  8
1
  6
Continuous
 62
     7
100
AcDbLine
 10
396.5
 20
489.714353
 30
0.0
 11
396.5
 21
492.714353
 31
0.0
  0
LINE
  5
549
330
1E
100
AcDbEntity
  8
1
  6
Continuous
 62
     7
100
AcDbLine
 10
396.5
 20
492.714353
 30
0.0
 11
393.5
 21
492.714353
 31
0.0
  0
LINE
  5
54A
330
1E
100
AcDbEntity
  8
1
  6
Continuous
 62
     7
100
AcDbLine
 10
379.0000019999998
 20
491.2143549999998
 30
0.0
 11
381.160002
 21
489.967279
 31
0.0
  0
LINE
  5
54B
330
1E
100
AcDbEntity
  8
1
  6
Continuous
 62
     7
100
AcDbLine
 10
381.160002
 20
489.967279
 30
0.0
 11
381.160002
 21
492.4614329999998
 31
0.0
  0
LINE
  5
54C
330
1E
100
AcDbEntity
  8
1
  6
Continuous
 62
     7
100
AcDbLine
 10
381.160002
 20
492.4614329999998
 30
0.0
 11
379.0
 21
491.2143559999998
 31
0.0
  0
LINE
  5
54D
330
1E
100
AcDbEntity
  8
1
  6
Continuous
 62
     7
100
AcDbLine
 10
376.8399999999998
 20
491.2143549999998
 30
0.0
 11
379.0
 21
489.967279
 31
0.0
  0
LINE
  5
54E
330
1E
100
AcDbEntity
  8
1
  6
Continuous
 62
     7
100
AcDbLine
 10
379.0
 20
489.967279
 30
0.0
 11
379.0
 21
492.4614329999998
 31
0.0
  0
LINE
  5
54F
330
1E
100
AcDbEntity
  8
1
  6
Continuous
 62
     7
100
AcDbLine
 10
379.0
 20
492.4614329999998
 30
0.0
 11
376.8399979999998
 21
491.2143559999998
 31
0.0
  0
CIRCLE
  5
551
330
1E
100
AcDbEntity
  8
1
  6
Continuous
 62
     7
100
AcDbCircle
 10
374.5
 20
1168.584906
 30
0.0
 40
2.5
  0
LINE
  5
552
330
1E
100
AcDbEntity
  8
1
  6
Continuous
 62
     7
100
AcDbLine
 10
372.75
 20
1168.584906
 30
0.0
 11
376.25
 21
1168.584906
 31
0.0
  0
LINE
  5
553
330
1E
100
AcDbEntity
  8
1
  6
Continuous
 62
     7
100
AcDbLine
 10
374.5
 20
1170.334906
 30
0.0
 11
374.5
 21
1166.834906
 31
0.0
  0
CIRCLE
  5
554
330
1E
100
AcDbEntity
  8
1
  6
Continuous
 62
     7
100
AcDbCircle
 10
344.5
 20
1168.584906
 30
0.0
 40
2.5
  0
LINE
  5
555
330
1E
100
AcDbEntity
  8
1
  6
Continuous
 62
     7
100
AcDbLine
 10
342.75
 20
1168.584906
 30
0.0
 11
346.2499999999998
 21
1168.584906
 31
0.0
  0
LINE
  5
556
330
1E
100
AcDbEntity
  8
1
  6
Continuous
 62
     7
100
AcDbLine
 10
344.5
 20
1170.334906
 30
0.0
 11
344.5
 21
1166.834906
 31
0.0
  0
LINE
  5
557
330
1E
100
AcDbEntity
  8
1
  6
Continuous
 62
     7
100
AcDbLine
 10
351.75
 20
1171.084906
 30
0.0
 11
351.75
 21
1166.084906
 31
0.0
  0
LINE
  5
558
330
1E
100
AcDbEntity
  8
1
  6
Continuous
 62
     7
100
AcDbLine
 10
351.75
 20
1166.084906
 30
0.0
 11
367.2499999999998
 21
1166.084906
 31
0.0
  0
LINE
  5
559
330
1E
100
AcDbEntity
  8
1
  6
Continuous
 62
     7
100
AcDbLine
 10
367.2499999999998
 20
1166.084906
 30
0.0
 11
367.2499999999998
 21
1171.084906
 31
0.0
  0
LINE
  5
55A
330
1E
100
AcDbEntity
  8
1
  6
Continuous
 62
     7
100
AcDbLine
 10
367.2499999999998
 20
1171.084906
 30
0.0
 11
351.75
 21
1171.084906
 31
0.0
  0
TEXT
  5
55B
330
1E
100
AcDbEntity
  8
1
  6
Continuous
 62
     7
100
AcDbText
 10
365.28581
 20
1164.845749
 30
0.0
 40
3.004178
  1
e-SATA
 50
180.0
 41
0.666667
  7
KANJI
100
AcDbText
  0
TEXT
  5
55C
330
1E
100
AcDbEntity
  8
1
  6
Continuous
 62
     7
100
AcDbText
 10
399.788595
 20
1202.845749
 30
0.0
 40
3.004178
  1
RESERVED
 50
180.0
 41
0.666667
  7
KANJI
100
AcDbText
  0
LINE
  5
566
330
1E
100
AcDbEntity
  8
0
100
AcDbLine
 10
182.0
 20
460.0
 30
0.0
 11
182.0
 21
423.9401298530306
 31
0.0
  0
LINE
  5
567
330
1E
100
AcDbEntity
  8
0
100
AcDbLine
 10
622.5211286392441
 20
460.0
 30
0.0
 11
622.5211286392441
 21
423.9401298530306
 31
0.0
  0
LINE
  5
568
330
1E
100
AcDbEntity
  8
0
100
AcDbLine
 10
183.0
 20
423.9401298530306
 30
0.0
 11
401.9455643196218
 21
423.9401298530306
 31
0.0
  0
LINE
  5
569
330
1E
100
AcDbEntity
  8
0
100
AcDbLine
 10
621.5211286392441
 20
423.9401298530306
 30
0.0
 11
402.5755643196219
 21
423.9401298530306
 31
0.0
  0
SOLID
  5
56A
330
1E
100
AcDbEntity
  8
0
100
AcDbTrace
 10
183.0
 20
424.1067965196974
 30
0.0
 11
183.0
 21
423.7734631863639
 31
0.0
 12
182.0
 22
423.9401298530306
 32
0.0
 13
182.0
 23
423.9401298530306
 33
0.0
  0
SOLID
  5
56B
330
1E
100
AcDbEntity
  8
0
100
AcDbTrace
 10
621.5211286392441
 20
424.1067965196974
 30
0.0
 11
621.5211286392441
 21
423.7734631863639
 31
0.0
 12
622.5211286392441
 22
423.9401298530306
 32
0.0
 13
622.5211286392441
 23
423.9401298530306
 33
0.0
  0
MTEXT
  5
56C
330
1E
100
AcDbEntity
  8
0
100
AcDbMText
 10
402.2605643196219
 20
427.7400957294648
 30
0.0
 40
5.0
 41
0.0
 71
     5
 72
     1
  1
{\Ftxt.shx,bigfont.shx;440}
 73
     1
 44
1.0
  0
LINE
  5
56D
330
1E
100
AcDbEntity
  8
0
100
AcDbLine
 10
622.5211286392441
 20
470.0
 30
0.0
 11
666.9759672044465
 21
469.9999999999998
 31
0.0
  0
LINE
  5
56E
330
1E
100
AcDbEntity
  8
0
100
AcDbLine
 10
622.5211286392441
 20
523.0
 30
0.0
 11
666.9759672044465
 21
523.0
 31
0.0
  0
LINE
  5
56F
330
1E
100
AcDbEntity
  8
0
100
AcDbLine
 10
666.9759672044465
 20
470.9999999999998
 30
0.0
 11
666.9759672044465
 21
496.3199999999998
 31
0.0
  0
LINE
  5
570
330
1E
100
AcDbEntity
  8
0
100
AcDbLine
 10
666.9759672044465
 20
522.0
 30
0.0
 11
666.9759672044465
 21
496.6799999999998
 31
0.0
  0
SOLID
  5
571
330
1E
100
AcDbEntity
  8
0
100
AcDbTrace
 10
666.8093005377798
 20
470.9999999999998
 30
0.0
 11
667.1426338711131
 21
470.9999999999998
 31
0.0
 12
666.9759672044465
 22
469.9999999999998
 32
0.0
 13
666.9759672044465
 23
469.9999999999998
 33
0.0
  0
SOLID
  5
572
330
1E
100
AcDbEntity
  8
0
100
AcDbTrace
 10
666.8093005377798
 20
522.0
 30
0.0
 11
667.1426338711131
 21
522.0
 31
0.0
 12
666.9759672044465
 22
523.0
 32
0.0
 13
666.9759672044465
 23
523.0
 33
0.0
  0
MTEXT
  5
573
330
1E
100
AcDbEntity
  8
0
100
AcDbMText
 10
662.9907930849904
 20
496.4999999999998
 30
0.0
 40
5.0
 41
0.0
 71
     5
 72
     1
  1
{\Ftxt.shx,bigfont.shx;53}
 11
0.0000000000000001
 21
1.0
 31
0.0
 73
     1
 44
1.0
  0
LINE
  5
574
330
1E
100
AcDbEntity
  8
0
100
AcDbLine
 10
622.5211286392441
 20
460.0
 30
0.0
 11
705.278318850148
 21
459.9999999999998
 31
0.0
  0
LINE
  5
575
330
1E
100
AcDbEntity
  8
0
100
AcDbLine
 10
622.5211286392441
 20
523.0
 30
0.0
 11
705.278318850148
 21
523.0
 31
0.0
  0
LINE
  5
576
330
1E
100
AcDbEntity
  8
0
100
AcDbLine
 10
705.278318850148
 20
460.9999999999998
 30
0.0
 11
705.278318850148
 21
491.3199999999998
 31
0.0
  0
LINE
  5
577
330
1E
100
AcDbEntity
  8
0
100
AcDbLine
 10
705.278318850148
 20
522.0
 30
0.0
 11
705.278318850148
 21
491.6799999999998
 31
0.0
  0
SOLID
  5
578
330
1E
100
AcDbEntity
  8
0
100
AcDbTrace
 10
705.1116521834813
 20
460.9999999999998
 30
0.0
 11
705.4449855168145
 21
460.9999999999998
 31
0.0
 12
705.278318850148
 22
459.9999999999998
 32
0.0
 13
705.278318850148
 23
459.9999999999998
 33
0.0
  0
SOLID
  5
579
330
1E
100
AcDbEntity
  8
0
100
AcDbTrace
 10
705.1116521834813
 20
522.0
 30
0.0
 11
705.4449855168145
 21
522.0
 31
0.0
 12
705.278318850148
 22
523.0
 32
0.0
 13
705.278318850148
 23
523.0
 33
0.0
  0
MTEXT
  5
57A
330
1E
100
AcDbEntity
  8
0
100
AcDbMText
 10
700.663839946269
 20
491.5
 30
0.0
 40
5.0
 41
0.0
 71
     5
 72
     1
  1
{\Ftxt.shx,bigfont.shx;63}
 11
0.0000000000000001
 21
1.0
 31
0.0
 73
     1
 44
1.0
  0
LINE
  5
57F
330
1E
100
AcDbEntity
  8
0
100
AcDbLine
 10
630.0149282403573
 20
667.0151409999999
 30
0.0
 11
705.2783188501479
 21
667.0151409999999
 31
0.0
  0
LINE
  5
580
330
1E
100
AcDbEntity
  8
0
100
AcDbLine
 10
630.0149282403573
 20
1020.0
 30
0.0
 11
705.278318850148
 21
1020.0
 31
0.0
  0
LINE
  5
581
330
1E
100
AcDbEntity
  8
0
100
AcDbLine
 10
705.2783188501479
 20
668.0151409999997
 30
0.0
 11
705.278318850148
 21
843.3275705000001
 31
0.0
  0
LINE
  5
582
330
1E
100
AcDbEntity
  8
0
100
AcDbLine
 10
705.278318850148
 20
1019.0
 30
0.0
 11
705.278318850148
 21
843.6875705
 31
0.0
  0
SOLID
  5
583
330
1E
100
AcDbEntity
  8
0
100
AcDbTrace
 10
705.1116521834813
 20
668.0151409999997
 30
0.0
 11
705.4449855168145
 21
668.0151409999997
 31
0.0
 12
705.2783188501479
 22
667.0151409999999
 32
0.0
 13
705.2783188501479
 23
667.0151409999999
 33
0.0
  0
SOLID
  5
584
330
1E
100
AcDbEntity
  8
0
100
AcDbTrace
 10
705.1116521834813
 20
1019.0
 30
0.0
 11
705.4449855168145
 21
1019.0
 31
0.0
 12
705.278318850148
 22
1020.0
 32
0.0
 13
705.278318850148
 23
1020.0
 33
0.0
  0
MTEXT
  5
585
330
1E
100
AcDbEntity
  8
0
100
AcDbMText
 10
701.4354897057009
 20
843.5075705
 30
0.0
 40
5.0
 41
0.0
 71
     5
 72
     1
  1
{\Ftxt.shx,bigfont.shx;353}
 11
0.0000000000000001
 21
1.0
 31
0.0
 73
     1
 44
1.0
  0
ENDSEC
  0
SECTION
  2
OBJECTS
  0
DICTIONARY
  5
C
330
0
100
AcDbDictionary
281
     1
  3
ACAD_GROUP
350
D
  3
ACAD_PLOTSTYLENAME
350
E
  3
ACAD_MLINESTYLE
350
16
  3
ACAD_PLOTSETTINGS
350
18
  3
ACAD_LAYOUT
350
19
  0
DICTIONARY
  5
D
102
{ACAD_REACTORS
330
C
102
}
330
C
100
AcDbDictionary
281
     1
  0
ACDBDICTIONARYWDFLT
  5
E
102
{ACAD_REACTORS
330
C
102
}
330
C
100
AcDbDictionary
281
     1
  3
Normal
350
F
100
AcDbDictionaryWithDefault
340
F
  0
DICTIONARY
  5
16
102
{ACAD_REACTORS
330
C
102
}
330
C
100
AcDbDictionary
281
     1
  3
Standard
350
17
  0
DICTIONARY
  5
18
102
{ACAD_REACTORS
330
C
102
}
330
C
100
AcDbDictionary
281
     1
  0
DICTIONARY
  5
19
102
{ACAD_REACTORS
330
C
102
}
330
C
100
AcDbDictionary
281
     1
  3
ﾚｲｱｳﾄ1
350
1D
  3
Model
350
21
  0
ACDBPLACEHOLDER
  5
F
102
{ACAD_REACTORS
330
E
102
}
330
E
  0
MLINESTYLE
  5
17
102
{ACAD_REACTORS
330
16
102
}
330
16
100
AcDbMlineStyle
  2
STANDARD
 70
     0
  3

 62
   256
 51
90.0
 52
90.0
 71
     2
 49
0.5
 62
   256
  6
BYLAYER
 49
-0.5
 62
   256
  6
BYLAYER
  0
LAYOUT
  5
1D
102
{ACAD_REACTORS
330
19
102
}
330
19
100
AcDbPlotSettings
  1

  2
自動 Canon LASER SHOT LBP-1820 (merit 上)
  4

  6

 40
0.0
 41
0.0
 42
0.0
 43
0.0
 44
0.0
 45
0.0
 46
0.0
 47
0.0
 48
0.0
 49
0.0
140
0.0
141
0.0
142
1.0
143
1.0
 70
   688
 72
     0
 73
     0
 74
     5
  7

 75
    16
147
1.0
148
0.0
149
0.0
100
AcDbLayout
  1
ﾚｲｱｳﾄ1
 70
     1
 71
     1
 10
0.0
 20
0.0
 11
12.0
 21
9.0
 12
0.0
 22
0.0
 32
0.0
 14
0.0
 24
0.0
 34
0.0
 15
210.0
 25
297.0
 35
0.0
146
0.0
 13
0.0
 23
0.0
 33
0.0
 16
1.0
 26
0.0
 36
0.0
 17
0.0
 27
1.0
 37
0.0
 76
     0
330
1A
  0
LAYOUT
  5
21
102
{ACAD_REACTORS
330
19
102
}
330
19
100
AcDbPlotSettings
  1

  2
自動 Canon LASER SHOT LBP-1820 (merit 上)
  4

  6

 40
0.0
 41
0.0
 42
0.0
 43
0.0
 44
0.0
 45
0.0
 46
0.0
 47
0.0
 48
0.0
 49
0.0
140
0.0
141
0.0
142
1.0
143
1.0
 70
  1712
 72
     0
 73
     0
 74
     0
  7

 75
     0
147
1.0
148
0.0
149
0.0
100
AcDbLayout
  1
Model
 70
     1
 71
     0
 10
0.0
 20
0.0
 11
12.0
 21
9.0
 12
0.0
 22
0.0
 32
0.0
 14
0.0
 24
0.0
 34
0.0
 15
0.0
 25
0.0
 35
0.0
146
0.0
 13
0.0
 23
0.0
 33
0.0
 16
1.0
 26
0.0
 36
0.0
 17
0.0
 27
1.0
 37
0.0
 76
     0
330
1E
  0
ENDSEC
  0
EOF
