  0
SECTION
  2
HEADER
  9
$ACADVER
  1
AC1015
  9
$ACADMAINTVER
 70
     6
  9
$DWGCODEPAGE
  3
ANSI_932
  9
$INSBASE
 10
0.0
 20
0.0
 30
0.0
  9
$EXTMIN
 10
182.9360988490934
 20
443.9637033151966
 30
-0.0015258207003583
  9
$EXTMAX
 10
856.008913351699
 20
1156.032260154643
 30
0.0000000349246037
  9
$LIMMIN
 10
0.0
 20
0.0
  9
$LIMMAX
 10
1050.0
 20
1485.0
  9
$ORTHOMODE
 70
     1
  9
$REGENMODE
 70
     1
  9
$FILLMODE
 70
     1
  9
$QTEXTMODE
 70
     0
  9
$MIRRTEXT
 70
     1
  9
$LTSCALE
 40
1.25
  9
$ATTMODE
 70
     1
  9
$TEXTSIZE
 40
0.2
  9
$TRACEWID
 40
0.05
  9
$TEXTSTYLE
  7
STANDARD
  9
$CLAYER
  8
0
  9
$CELTYPE
  6
ByLayer
  9
$CECOLOR
 62
   256
  9
$CELTSCALE
 40
1.0
  9
$DISPSILH
 70
     0
  9
$DIMSCALE
 40
1.0
  9
$DIMASZ
 40
1.0
  9
$DIMEXO
 40
0.0
  9
$DIMDLI
 40
0.5
  9
$DIMRND
 40
0.0
  9
$DIMDLE
 40
0.0
  9
$DIMEXE
 40
0.0
  9
$DIMTP
 40
0.0
  9
$DIMTM
 40
0.0
  9
$DIMTXT
 40
0.18
  9
$DIMCEN
 40
0.0
  9
$DIMTSZ
 40
0.0
  9
$DIMTOL
 70
     0
  9
$DIMLIM
 70
     0
  9
$DIMTIH
 70
     1
  9
$DIMTOH
 70
     1
  9
$DIMSE1
 70
     0
  9
$DIMSE2
 70
     0
  9
$DIMTAD
 70
     0
  9
$DIMZIN
 70
     0
  9
$DIMBLK
  1

  9
$DIMASO
 70
     0
  9
$DIMSHO
 70
     0
  9
$DIMPOST
  1

  9
$DIMAPOST
  1

  9
$DIMALT
 70
     0
  9
$DIMALTD
 70
     0
  9
$DIMALTF
 40
25.4
  9
$DIMLFAC
 40
1.0
  9
$DIMTOFL
 70
     0
  9
$DIMTVP
 40
0.0
  9
$DIMTIX
 70
     0
  9
$DIMSOXD
 70
     0
  9
$DIMSAH
 70
     0
  9
$DIMBLK1
  1

  9
$DIMBLK2
  1

  9
$DIMSTYLE
  2
Standard
  9
$DIMCLRD
 70
     0
  9
$DIMCLRE
 70
     0
  9
$DIMCLRT
 70
     0
  9
$DIMTFAC
 40
1.0
  9
$DIMGAP
 40
0.09
  9
$DIMJUST
 70
     0
  9
$DIMSD1
 70
     0
  9
$DIMSD2
 70
     0
  9
$DIMTOLJ
 70
     1
  9
$DIMTZIN
 70
     0
  9
$DIMALTZ
 70
     0
  9
$DIMALTTZ
 70
     0
  9
$DIMUPT
 70
     0
  9
$DIMDEC
 70
     4
  9
$DIMTDEC
 70
     4
  9
$DIMALTU
 70
     2
  9
$DIMALTTD
 70
     2
  9
$DIMTXSTY
  7
STANDARD
  9
$DIMAUNIT
 70
     0
  9
$DIMADEC
 70
     0
  9
$DIMALTRND
 40
0.0
  9
$DIMAZIN
 70
     0
  9
$DIMDSEP
 70
    46
  9
$DIMATFIT
 70
     3
  9
$DIMFRAC
 70
     0
  9
$DIMLDRBLK
  1

  9
$DIMLUNIT
 70
     2
  9
$DIMLWD
 70
    -2
  9
$DIMLWE
 70
    -2
  9
$DIMTMOVE
 70
     0
  9
$LUNITS
 70
     2
  9
$LUPREC
 70
     2
  9
$SKETCHINC
 40
0.0
  9
$FILLETRAD
 40
0.0
  9
$AUNITS
 70
     1
  9
$AUPREC
 70
     2
  9
$MENU
  1
ACAD
  9
$ELEVATION
 40
0.0
  9
$PELEVATION
 40
0.0
  9
$THICKNESS
 40
0.0
  9
$LIMCHECK
 70
     1
  9
$CHAMFERA
 40
0.0
  9
$CHAMFERB
 40
0.0
  9
$CHAMFERC
 40
0.0
  9
$CHAMFERD
 40
0.0
  9
$SKPOLY
 70
     0
  9
$TDCREATE
 40
2311945.483465903
  9
$TDUCREATE
 40
2311945.108465903
  9
$TDUPDATE
 40
2454796.677832928
  9
$TDUUPDATE
 40
2454796.302832928
  9
$TDINDWG
 40
0.0141437037
  9
$TDUSRTIMER
 40
0.0141433449
  9
$USRTIMER
 70
     1
  9
$ANGBASE
 50
0.0
  9
$ANGDIR
 70
     0
  9
$PDMODE
 70
     0
  9
$PDSIZE
 40
0.0
  9
$PLINEWID
 40
0.0
  9
$SPLFRAME
 70
     0
  9
$SPLINETYPE
 70
     6
  9
$SPLINESEGS
 70
     8
  9
$HANDSEED
  5
436
  9
$SURFTAB1
 70
     6
  9
$SURFTAB2
 70
     6
  9
$SURFTYPE
 70
     6
  9
$SURFU
 70
     6
  9
$SURFV
 70
     6
  9
$UCSBASE
  2

  9
$UCSNAME
  2

  9
$UCSORG
 10
0.0
 20
0.0
 30
0.0
  9
$UCSXDIR
 10
1.0
 20
0.0
 30
0.0
  9
$UCSYDIR
 10
0.0
 20
1.0
 30
0.0
  9
$UCSORTHOREF
  2

  9
$UCSORTHOVIEW
 70
     0
  9
$UCSORGTOP
 10
0.0
 20
0.0
 30
0.0
  9
$UCSORGBOTTOM
 10
0.0
 20
0.0
 30
0.0
  9
$UCSORGLEFT
 10
0.0
 20
0.0
 30
0.0
  9
$UCSORGRIGHT
 10
0.0
 20
0.0
 30
0.0
  9
$UCSORGFRONT
 10
0.0
 20
0.0
 30
0.0
  9
$UCSORGBACK
 10
0.0
 20
0.0
 30
0.0
  9
$PUCSBASE
  2

  9
$PUCSNAME
  2

  9
$PUCSORG
 10
0.0
 20
0.0
 30
0.0
  9
$PUCSXDIR
 10
1.0
 20
0.0
 30
0.0
  9
$PUCSYDIR
 10
0.0
 20
1.0
 30
0.0
  9
$PUCSORTHOREF
  2

  9
$PUCSORTHOVIEW
 70
     0
  9
$PUCSORGTOP
 10
0.0
 20
0.0
 30
0.0
  9
$PUCSORGBOTTOM
 10
0.0
 20
0.0
 30
0.0
  9
$PUCSORGLEFT
 10
0.0
 20
0.0
 30
0.0
  9
$PUCSORGRIGHT
 10
0.0
 20
0.0
 30
0.0
  9
$PUCSORGFRONT
 10
0.0
 20
0.0
 30
0.0
  9
$PUCSORGBACK
 10
0.0
 20
0.0
 30
0.0
  9
$USERI1
 70
     0
  9
$USERI2
 70
     0
  9
$USERI3
 70
     0
  9
$USERI4
 70
     0
  9
$USERI5
 70
     0
  9
$USERR1
 40
0.0
  9
$USERR2
 40
0.0
  9
$USERR3
 40
0.0
  9
$USERR4
 40
0.0
  9
$USERR5
 40
0.0
  9
$WORLDVIEW
 70
     1
  9
$SHADEDGE
 70
     3
  9
$SHADEDIF
 70
    70
  9
$TILEMODE
 70
     1
  9
$MAXACTVP
 70
    64
  9
$PINSBASE
 10
0.0
 20
0.0
 30
0.0
  9
$PLIMCHECK
 70
     0
  9
$PEXTMIN
 10
0.0
 20
0.0
 30
0.0
  9
$PEXTMAX
 10
210.0
 20
297.0
 30
0.0
  9
$PLIMMIN
 10
0.0
 20
0.0
  9
$PLIMMAX
 10
12.0
 20
9.0
  9
$UNITMODE
 70
     0
  9
$VISRETAIN
 70
     1
  9
$PLINEGEN
 70
     0
  9
$PSLTSCALE
 70
     1
  9
$TREEDEPTH
 70
  3020
  9
$CMLSTYLE
  2
Standard
  9
$CMLJUST
 70
     0
  9
$CMLSCALE
 40
1.0
  9
$PROXYGRAPHICS
 70
     1
  9
$MEASUREMENT
 70
     0
  9
$CELWEIGHT
370
    -1
  9
$ENDCAPS
280
     0
  9
$JOINSTYLE
280
     0
  9
$LWDISPLAY
290
     0
  9
$INSUNITS
 70
     0
  9
$HYPERLINKBASE
  1

  9
$STYLESHEET
  1

  9
$XEDIT
290
     1
  9
$CEPSNTYPE
380
     0
  9
$PSTYLEMODE
290
     1
  9
$FINGERPRINTGUID
  2
{662239E0-7A16-4052-A0AC-11C572C6E676}
  9
$VERSIONGUID
  2
{D987863F-7847-43D0-889D-170802F6473D}
  9
$EXTNAMES
290
     1
  9
$PSVPSCALE
 40
0.0
  9
$OLESTARTUP
290
     0
  0
ENDSEC
  0
SECTION
  2
CLASSES
  0
CLASS
  1
ACDBDICTIONARYWDFLT
  2
AcDbDictionaryWithDefault
  3
AutoCAD 2000
 90
        0
280
     0
281
     0
  0
CLASS
  1
ACDBPLACEHOLDER
  2
AcDbPlaceHolder
  3
AutoCAD 2000
 90
        0
280
     0
281
     0
  0
CLASS
  1
LAYOUT
  2
AcDbLayout
  3
AutoCAD 2000
 90
        0
280
     0
281
     0
  0
ENDSEC
  0
SECTION
  2
TABLES
  0
TABLE
  2
VPORT
  5
8
330
0
100
AcDbSymbolTable
 70
     4
  0
VPORT
  5
435
330
8
100
AcDbSymbolTableRecord
100
AcDbViewportTableRecord
  2
*Active
 70
     0
 10
0.0
 20
0.0
 11
1.0
 21
1.0
 12
517.7201878803129
 22
785.7042223279868
 13
0.0
 23
0.0
 14
1.0
 24
1.0
 15
0.0
 25
0.0
 16
0.0
 26
0.0
 36
1.0
 17
0.0
 27
0.0
 37
0.0
 40
803.9980538226645
 41
1.461725394896719
 42
50.0
 43
0.0
 44
0.0
 50
0.0
 51
0.0
 71
     0
 72
   100
 73
     1
 74
     1
 75
     0
 76
     0
 77
     0
 78
     0
281
     0
 65
     1
110
0.0
120
0.0
130
0.0
111
1.0
121
0.0
131
0.0
112
0.0
122
1.0
132
0.0
 79
     0
146
0.0
  0
ENDTAB
  0
TABLE
  2
LTYPE
  5
5
330
0
100
AcDbSymbolTable
 70
     5
  0
LTYPE
  5
13
330
5
100
AcDbSymbolTableRecord
100
AcDbLinetypeTableRecord
  2
ByBlock
 70
     0
  3

 72
    65
 73
     0
 40
0.0
  0
LTYPE
  5
14
330
5
100
AcDbSymbolTableRecord
100
AcDbLinetypeTableRecord
  2
ByLayer
 70
     0
  3

 72
    65
 73
     0
 40
0.0
  0
LTYPE
  5
15
330
5
100
AcDbSymbolTableRecord
100
AcDbLinetypeTableRecord
  2
CONTINUOUS
 70
     0
  3
Solid line
 72
    65
 73
     0
 40
0.0
  0
LTYPE
  5
22
330
5
100
AcDbSymbolTableRecord
100
AcDbLinetypeTableRecord
  2
HIDDEN
 70
     0
  3
------------------------
 72
    65
 73
     2
 40
12.6
 49
8.4
 74
     0
 49
-4.2
 74
     0
  0
LTYPE
  5
23
330
5
100
AcDbSymbolTableRecord
100
AcDbLinetypeTableRecord
  2
DOT
 70
     0
  3
････････････････････････
 72
    65
 73
     2
 40
8.0
 49
6.0
 74
     0
 49
-2.0
 74
     0
  0
LTYPE
  5
24
330
5
100
AcDbSymbolTableRecord
100
AcDbLinetypeTableRecord
  2
DASHDOT
 70
     0
  3
--･--･--･--･--･--･--･--
 72
    65
 73
     4
 40
50.5
 49
30.0
 74
     0
 49
-9.0
 74
     0
 49
2.5
 74
     0
 49
-9.0
 74
     0
  0
LTYPE
  5
25
330
5
100
AcDbSymbolTableRecord
100
AcDbLinetypeTableRecord
  2
DIVIDE
 70
     0
  3
--･･--･･--･･--･･--･･--
 72
    65
 73
     6
 40
58.0
 49
30.0
 74
     0
 49
-9.0
 74
     0
 49
2.5
 74
     0
 49
-5.0
 74
     0
 49
2.5
 74
     0
 49
-9.0
 74
     0
  0
ENDTAB
  0
TABLE
  2
LAYER
  5
2
330
0
100
AcDbSymbolTable
 70
     5
  0
LAYER
  5
10
330
2
100
AcDbSymbolTableRecord
100
AcDbLayerTableRecord
  2
0
 70
     0
 62
     7
  6
CONTINUOUS
370
    -3
390
F
  0
LAYER
  5
26
330
2
100
AcDbSymbolTableRecord
100
AcDbLayerTableRecord
  2
1
 70
     0
 62
     7
  6
CONTINUOUS
370
    -3
390
F
  0
LAYER
  5
27
330
2
100
AcDbSymbolTableRecord
100
AcDbLayerTableRecord
  2
19
 70
     0
 62
    52
  6
CONTINUOUS
370
    -3
390
F
  0
LAYER
  5
28
330
2
100
AcDbSymbolTableRecord
100
AcDbLayerTableRecord
  2
128
 70
     0
 62
     7
  6
CONTINUOUS
370
    -3
390
F
  0
LAYER
  5
34E
330
2
100
AcDbSymbolTableRecord
100
AcDbLayerTableRecord
  2
Defpoints
 70
     0
 62
     7
  6
CONTINUOUS
290
     0
370
    -3
390
F
  0
ENDTAB
  0
TABLE
  2
STYLE
  5
3
330
0
100
AcDbSymbolTable
 70
     2
  0
STYLE
  5
11
330
3
100
AcDbSymbolTableRecord
100
AcDbTextStyleTableRecord
  2
STANDARD
 70
     0
 40
0.0
 41
1.0
 50
0.0
 71
     0
 42
0.2
  3
TXT
  4

  0
STYLE
  5
29
330
3
100
AcDbSymbolTableRecord
100
AcDbTextStyleTableRecord
  2
KANJI
 70
     0
 40
0.0
 41
1.0
 50
0.0
 71
     0
 42
0.2
  3
TXT
  4
BIGFONT
  0
ENDTAB
  0
TABLE
  2
VIEW
  5
6
330
0
100
AcDbSymbolTable
 70
     0
  0
ENDTAB
  0
TABLE
  2
UCS
  5
7
330
0
100
AcDbSymbolTable
 70
     0
  0
ENDTAB
  0
TABLE
  2
APPID
  5
9
330
0
100
AcDbSymbolTable
 70
     1
  0
APPID
  5
12
330
9
100
AcDbSymbolTableRecord
100
AcDbRegAppTableRecord
  2
ACAD
 70
     0
  0
ENDTAB
  0
TABLE
  2
DIMSTYLE
  5
A
330
0
100
AcDbSymbolTable
 70
     1
100
AcDbDimStyleTable
 71
     1
340
3F1
  0
DIMSTYLE
105
3F1
330
A
100
AcDbSymbolTableRecord
100
AcDbDimStyleTableRecord
  2
Standard
 70
     0
340
11
  0
ENDTAB
  0
TABLE
  2
BLOCK_RECORD
  5
1
330
0
100
AcDbSymbolTable
 70
     8
  0
BLOCK_RECORD
  5
1E
330
1
100
AcDbSymbolTableRecord
100
AcDbBlockTableRecord
  2
*Model_Space
340
21
  0
BLOCK_RECORD
  5
1A
330
1
100
AcDbSymbolTableRecord
100
AcDbBlockTableRecord
  2
*Paper_Space
340
1D
  0
BLOCK_RECORD
  5
2D
330
1
100
AcDbSymbolTableRecord
100
AcDbBlockTableRecord
  2
*D0
340
0
  0
BLOCK_RECORD
  5
38
330
1
100
AcDbSymbolTableRecord
100
AcDbBlockTableRecord
  2
*D1
340
0
  0
BLOCK_RECORD
  5
43
330
1
100
AcDbSymbolTableRecord
100
AcDbBlockTableRecord
  2
*D2
340
0
  0
BLOCK_RECORD
  5
4E
330
1
100
AcDbSymbolTableRecord
100
AcDbBlockTableRecord
  2
*D3
340
0
  0
BLOCK_RECORD
  5
34F
330
1
100
AcDbSymbolTableRecord
100
AcDbBlockTableRecord
  2
*D4
340
0
  0
BLOCK_RECORD
  5
35B
330
1
100
AcDbSymbolTableRecord
100
AcDbBlockTableRecord
  2
*D5
340
0
  0
BLOCK_RECORD
  5
367
330
1
100
AcDbSymbolTableRecord
100
AcDbBlockTableRecord
  2
*D6
340
0
  0
BLOCK_RECORD
  5
373
330
1
100
AcDbSymbolTableRecord
100
AcDbBlockTableRecord
  2
*D7
340
0
  0
ENDTAB
  0
ENDSEC
  0
SECTION
  2
BLOCKS
  0
BLOCK
  5
1F
330
1E
100
AcDbEntity
  8
0
100
AcDbBlockBegin
  2
*Model_Space
 70
     0
 10
0.0
 20
0.0
 30
0.0
  3
*Model_Space
  1

  0
ENDBLK
  5
20
330
1E
100
AcDbEntity
  8
0
100
AcDbBlockEnd
  0
BLOCK
  5
1B
330
1A
100
AcDbEntity
 67
     1
  8
0
100
AcDbBlockBegin
  2
*Paper_Space
 70
     0
 10
0.0
 20
0.0
 30
0.0
  3
*Paper_Space
  1

  0
ENDBLK
  5
1C
330
1A
100
AcDbEntity
 67
     1
  8
0
100
AcDbBlockEnd
  0
BLOCK
  5
2E
330
2D
100
AcDbEntity
  8
1
  6
Continuous
 62
     7
100
AcDbBlockBegin
  2
*D0
 70
     1
 10
0.0
 20
0.0
 30
0.0
  3
*D0
  1

  0
LINE
  5
2F
330
2D
100
AcDbEntity
  8
1
  6
Continuous
 62
     7
100
AcDbLine
 10
660.0
 20
650.0
 30
0.0
 11
660.0
 21
950.0
 31
0.0
  0
LINE
  5
30
330
2D
100
AcDbEntity
  8
1
  6
Continuous
 62
     7
100
AcDbLine
 10
670.0
 20
650.0
 30
0.0
 11
627.0
 21
650.0
 31
0.0
  0
LINE
  5
31
330
2D
100
AcDbEntity
  8
1
  6
Continuous
 62
     7
100
AcDbLine
 10
670.0
 20
950.0
 30
0.0
 11
627.0
 21
950.0
 31
0.0
  0
LINE
  5
32
330
2D
100
AcDbEntity
  8
1
  6
Continuous
 62
     7
100
AcDbLine
 10
660.0
 20
650.0
 30
0.0
 11
657.4118099999999
 21
659.659258
 31
0.0
  0
LINE
  5
33
330
2D
100
AcDbEntity
  8
1
  6
Continuous
 62
     7
100
AcDbLine
 10
660.0
 20
650.0
 30
0.0
 11
662.58819
 21
659.659258
 31
0.0
  0
LINE
  5
34
330
2D
100
AcDbEntity
  8
1
  6
Continuous
 62
     7
100
AcDbLine
 10
660.0
 20
950.0
 30
0.0
 11
662.58819
 21
940.340742
 31
0.0
  0
LINE
  5
35
330
2D
100
AcDbEntity
  8
1
  6
Continuous
 62
     7
100
AcDbLine
 10
660.0
 20
950.0
 30
0.0
 11
657.4118099999999
 21
940.340742
 31
0.0
  0
TEXT
  5
36
330
2D
100
AcDbEntity
  8
1
  6
Continuous
 62
     7
100
AcDbText
 10
660.0
 20
785.0
 30
0.0
 40
20.0
  1
300
 50
90.0
 41
0.5
  7
KANJI
100
AcDbText
  0
ENDBLK
  5
37
330
2D
100
AcDbEntity
  8
0
100
AcDbBlockEnd
  0
BLOCK
  5
39
330
38
100
AcDbEntity
  8
1
  6
Continuous
 62
     7
100
AcDbBlockBegin
  2
*D1
 70
     1
 10
0.0
 20
0.0
 30
0.0
  3
*D1
  1

  0
LINE
  5
3A
330
38
100
AcDbEntity
  8
1
  6
Continuous
 62
     7
100
AcDbLine
 10
183.0
 20
540.0
 30
0.0
 11
617.0
 21
540.0
 31
0.0
  0
LINE
  5
3B
330
38
100
AcDbEntity
  8
1
  6
Continuous
 62
     7
100
AcDbLine
 10
183.0
 20
550.0
 30
0.0
 11
183.0
 21
504.0
 31
0.0
  0
LINE
  5
3C
330
38
100
AcDbEntity
  8
1
  6
Continuous
 62
     7
100
AcDbLine
 10
617.0
 20
550.0
 30
0.0
 11
617.0
 21
504.0
 31
0.0
  0
LINE
  5
3D
330
38
100
AcDbEntity
  8
1
  6
Continuous
 62
     7
100
AcDbLine
 10
183.0
 20
540.0
 30
0.0
 11
192.6592579999999
 21
542.58819
 31
0.0
  0
LINE
  5
3E
330
38
100
AcDbEntity
  8
1
  6
Continuous
 62
     7
100
AcDbLine
 10
183.0
 20
540.0
 30
0.0
 11
192.6592579999999
 21
537.4118099999999
 31
0.0
  0
LINE
  5
3F
330
38
100
AcDbEntity
  8
1
  6
Continuous
 62
     7
100
AcDbLine
 10
617.0
 20
540.0
 30
0.0
 11
607.3407419999999
 21
537.4118099999999
 31
0.0
  0
LINE
  5
40
330
38
100
AcDbEntity
  8
1
  6
Continuous
 62
     7
100
AcDbLine
 10
617.0
 20
540.0
 30
0.0
 11
607.3407419999999
 21
542.58819
 31
0.0
  0
TEXT
  5
41
330
38
100
AcDbEntity
  8
1
  6
Continuous
 62
     7
100
AcDbText
 10
385.0
 20
540.0
 30
0.0
 40
20.0
  1
434
 41
0.5
  7
KANJI
100
AcDbText
  0
ENDBLK
  5
42
330
38
100
AcDbEntity
  8
0
100
AcDbBlockEnd
  0
BLOCK
  5
44
330
43
100
AcDbEntity
  8
1
  6
Continuous
 62
     7
100
AcDbBlockBegin
  2
*D2
 70
     1
 10
0.0
 20
0.0
 30
0.0
  3
*D2
  1

  0
LINE
  5
45
330
43
100
AcDbEntity
  8
1
  6
Continuous
 62
     7
100
AcDbLine
 10
660.0
 20
490.0
 30
0.0
 11
660.0
 21
404.0
 31
0.0
  0
LINE
  5
46
330
43
100
AcDbEntity
  8
1
  6
Continuous
 62
     7
100
AcDbLine
 10
670.0
 20
450.0
 30
0.0
 11
627.0
 21
450.0
 31
0.0
  0
LINE
  5
47
330
43
100
AcDbEntity
  8
1
  6
Continuous
 62
     7
100
AcDbLine
 10
670.0
 20
444.0
 30
0.0
 11
627.0
 21
444.0
 31
0.0
  0
LINE
  5
48
330
43
100
AcDbEntity
  8
1
  6
Continuous
 62
     7
100
AcDbLine
 10
660.0
 20
450.0
 30
0.0
 11
657.4118099999999
 21
459.659258
 31
0.0
  0
LINE
  5
49
330
43
100
AcDbEntity
  8
1
  6
Continuous
 62
     7
100
AcDbLine
 10
660.0
 20
450.0
 30
0.0
 11
662.58819
 21
459.659258
 31
0.0
  0
LINE
  5
4A
330
43
100
AcDbEntity
  8
1
  6
Continuous
 62
     7
100
AcDbLine
 10
660.0
 20
444.0
 30
0.0
 11
662.58819
 21
434.340742
 31
0.0
  0
LINE
  5
4B
330
43
100
AcDbEntity
  8
1
  6
Continuous
 62
     7
100
AcDbLine
 10
660.0
 20
444.0
 30
0.0
 11
657.4118099999999
 21
434.340742
 31
0.0
  0
TEXT
  5
4C
330
43
100
AcDbEntity
  8
1
  6
Continuous
 62
     7
100
AcDbText
 10
660.0
 20
442.0
 30
0.0
 40
20.0
  1
6
 50
90.0
 41
0.5
  7
KANJI
100
AcDbText
  0
ENDBLK
  5
4D
330
43
100
AcDbEntity
  8
0
100
AcDbBlockEnd
  0
BLOCK
  5
4F
330
4E
100
AcDbEntity
  8
1
  6
Continuous
 62
     7
100
AcDbBlockBegin
  2
*D3
 70
     1
 10
0.0
 20
0.0
 30
0.0
  3
*D3
  1

  0
LINE
  5
50
330
4E
100
AcDbEntity
  8
1
  6
Continuous
 62
     7
100
AcDbLine
 10
660.0
 20
450.0
 30
0.0
 11
660.0
 21
494.0
 31
0.0
  0
LINE
  5
51
330
4E
100
AcDbEntity
  8
1
  6
Continuous
 62
     7
100
AcDbLine
 10
670.0
 20
450.0
 30
0.0
 11
627.0
 21
450.0
 31
0.0
  0
LINE
  5
52
330
4E
100
AcDbEntity
  8
1
  6
Continuous
 62
     7
100
AcDbLine
 10
670.0
 20
494.0
 30
0.0
 11
627.0
 21
494.0
 31
0.0
  0
LINE
  5
53
330
4E
100
AcDbEntity
  8
1
  6
Continuous
 62
     7
100
AcDbLine
 10
660.0
 20
450.0
 30
0.0
 11
657.4118099999999
 21
459.659258
 31
0.0
  0
LINE
  5
54
330
4E
100
AcDbEntity
  8
1
  6
Continuous
 62
     7
100
AcDbLine
 10
660.0
 20
450.0
 30
0.0
 11
662.58819
 21
459.659258
 31
0.0
  0
LINE
  5
55
330
4E
100
AcDbEntity
  8
1
  6
Continuous
 62
     7
100
AcDbLine
 10
660.0
 20
494.0
 30
0.0
 11
662.58819
 21
484.340742
 31
0.0
  0
LINE
  5
56
330
4E
100
AcDbEntity
  8
1
  6
Continuous
 62
     7
100
AcDbLine
 10
660.0
 20
494.0
 30
0.0
 11
657.4118099999999
 21
484.340742
 31
0.0
  0
TEXT
  5
57
330
4E
100
AcDbEntity
  8
1
  6
Continuous
 62
     7
100
AcDbText
 10
660.0
 20
462.0
 30
0.0
 40
20.0
  1
44
 50
90.0
 41
0.5
  7
KANJI
100
AcDbText
  0
ENDBLK
  5
58
330
4E
100
AcDbEntity
  8
0
100
AcDbBlockEnd
  0
BLOCK
  5
358
330
34F
100
AcDbEntity
  8
0
100
AcDbBlockBegin
  2
*D4
 70
     1
 10
0.0
 20
0.0
 30
0.0
  3
*D4
  1

  0
LINE
  5
350
330
34F
100
AcDbEntity
  8
1
  6
Continuous
 62
     0
370
    -2
100
AcDbLine
 10
627.0
 20
650.0
 30
0.0
 11
660.0
 21
650.0
 31
0.0
  0
LINE
  5
351
330
34F
100
AcDbEntity
  8
1
  6
Continuous
 62
     0
370
    -2
100
AcDbLine
 10
627.0
 20
950.0
 30
0.0
 11
660.0000000000001
 21
950.0
 31
0.0
  0
LINE
  5
352
330
34F
100
AcDbEntity
  8
1
  6
Continuous
 62
     0
370
    -2
100
AcDbLine
 10
660.0
 20
651.0
 30
0.0
 11
660.0000000000001
 21
949.0
 31
0.0
  0
SOLID
  5
353
330
34F
100
AcDbEntity
  8
1
  6
Continuous
 62
     0
100
AcDbTrace
 10
659.8333333333333
 20
651.0
 30
0.0
 11
660.1666666666666
 21
651.0
 31
0.0
 12
660.0
 22
650.0
 32
0.0
 13
660.0
 23
650.0
 33
0.0
  0
SOLID
  5
354
330
34F
100
AcDbEntity
  8
1
  6
Continuous
 62
     0
100
AcDbTrace
 10
659.8333333333335
 20
949.0
 30
0.0
 11
660.1666666666667
 21
949.0
 31
0.0
 12
660.0000000000001
 22
950.0
 32
0.0
 13
660.0000000000001
 23
950.0
 33
0.0
  0
POINT
  5
355
330
34F
100
AcDbEntity
  8
Defpoints
  6
Continuous
 62
     0
100
AcDbPoint
 10
627.0
 20
650.0
 30
0.0
  0
POINT
  5
356
330
34F
100
AcDbEntity
  8
Defpoints
  6
Continuous
 62
     0
100
AcDbPoint
 10
627.0
 20
950.0
 30
0.0
  0
POINT
  5
357
330
34F
100
AcDbEntity
  8
Defpoints
  6
Continuous
 62
     0
100
AcDbPoint
 10
660.0000000000001
 20
950.0
 30
0.0
  0
ENDBLK
  5
359
330
34F
100
AcDbEntity
  8
0
100
AcDbBlockEnd
  0
BLOCK
  5
364
330
35B
100
AcDbEntity
  8
0
100
AcDbBlockBegin
  2
*D5
 70
     1
 10
0.0
 20
0.0
 30
0.0
  3
*D5
  1

  0
LINE
  5
35C
330
35B
100
AcDbEntity
  8
1
  6
Continuous
 62
     0
370
    -2
100
AcDbLine
 10
183.0
 20
504.0
 30
0.0
 11
183.0
 21
540.0
 31
0.0
  0
LINE
  5
35D
330
35B
100
AcDbEntity
  8
1
  6
Continuous
 62
     0
370
    -2
100
AcDbLine
 10
617.0
 20
504.0
 30
0.0
 11
617.0
 21
540.0
 31
0.0
  0
LINE
  5
35E
330
35B
100
AcDbEntity
  8
1
  6
Continuous
 62
     0
370
    -2
100
AcDbLine
 10
184.0
 20
540.0
 30
0.0
 11
616.0
 21
540.0
 31
0.0
  0
SOLID
  5
35F
330
35B
100
AcDbEntity
  8
1
  6
Continuous
 62
     0
100
AcDbTrace
 10
184.0
 20
540.1666666666666
 30
0.0
 11
184.0
 21
539.8333333333333
 31
0.0
 12
183.0
 22
540.0
 32
0.0
 13
183.0
 23
540.0
 33
0.0
  0
SOLID
  5
360
330
35B
100
AcDbEntity
  8
1
  6
Continuous
 62
     0
100
AcDbTrace
 10
616.0
 20
540.1666666666666
 30
0.0
 11
616.0
 21
539.8333333333333
 31
0.0
 12
617.0
 22
540.0
 32
0.0
 13
617.0
 23
540.0
 33
0.0
  0
POINT
  5
361
330
35B
100
AcDbEntity
  8
Defpoints
  6
Continuous
 62
     0
100
AcDbPoint
 10
183.0
 20
504.0
 30
0.0
  0
POINT
  5
362
330
35B
100
AcDbEntity
  8
Defpoints
  6
Continuous
 62
     0
100
AcDbPoint
 10
617.0
 20
504.0
 30
0.0
  0
POINT
  5
363
330
35B
100
AcDbEntity
  8
Defpoints
  6
Continuous
 62
     0
100
AcDbPoint
 10
617.0
 20
540.0
 30
0.0
  0
ENDBLK
  5
365
330
35B
100
AcDbEntity
  8
0
100
AcDbBlockEnd
  0
BLOCK
  5
370
330
367
100
AcDbEntity
  8
0
100
AcDbBlockBegin
  2
*D6
 70
     1
 10
0.0
 20
0.0
 30
0.0
  3
*D6
  1

  0
LINE
  5
368
330
367
100
AcDbEntity
  8
1
  6
Continuous
 62
     0
370
    -2
100
AcDbLine
 10
627.0
 20
450.0
 30
0.0
 11
660.0
 21
449.9999999999999
 31
0.0
  0
LINE
  5
369
330
367
100
AcDbEntity
  8
1
  6
Continuous
 62
     0
370
    -2
100
AcDbLine
 10
627.0
 20
444.0
 30
0.0
 11
660.0
 21
443.9999999999999
 31
0.0
  0
LINE
  5
36A
330
367
100
AcDbEntity
  8
1
  6
Continuous
 62
     0
370
    -2
100
AcDbLine
 10
660.0
 20
448.9999999999999
 30
0.0
 11
660.0
 21
444.9999999999999
 31
0.0
  0
SOLID
  5
36B
330
367
100
AcDbEntity
  8
1
  6
Continuous
 62
     0
100
AcDbTrace
 10
659.8333333333333
 20
448.9999999999999
 30
0.0
 11
660.1666666666666
 21
448.9999999999999
 31
0.0
 12
660.0
 22
449.9999999999999
 32
0.0
 13
660.0
 23
449.9999999999999
 33
0.0
  0
SOLID
  5
36C
330
367
100
AcDbEntity
  8
1
  6
Continuous
 62
     0
100
AcDbTrace
 10
659.8333333333333
 20
444.9999999999999
 30
0.0
 11
660.1666666666666
 21
444.9999999999999
 31
0.0
 12
660.0
 22
443.9999999999999
 32
0.0
 13
660.0
 23
443.9999999999999
 33
0.0
  0
POINT
  5
36D
330
367
100
AcDbEntity
  8
Defpoints
  6
Continuous
 62
     0
100
AcDbPoint
 10
627.0
 20
450.0
 30
0.0
  0
POINT
  5
36E
330
367
100
AcDbEntity
  8
Defpoints
  6
Continuous
 62
     0
100
AcDbPoint
 10
627.0
 20
444.0
 30
0.0
  0
POINT
  5
36F
330
367
100
AcDbEntity
  8
Defpoints
  6
Continuous
 62
     0
100
AcDbPoint
 10
660.0
 20
443.9999999999999
 30
0.0
  0
ENDBLK
  5
371
330
367
100
AcDbEntity
  8
0
100
AcDbBlockEnd
  0
BLOCK
  5
37C
330
373
100
AcDbEntity
  8
0
100
AcDbBlockBegin
  2
*D7
 70
     1
 10
0.0
 20
0.0
 30
0.0
  3
*D7
  1

  0
LINE
  5
374
330
373
100
AcDbEntity
  8
1
  6
Continuous
 62
     0
370
    -2
100
AcDbLine
 10
627.0
 20
450.0
 30
0.0
 11
660.0
 21
449.9999999999999
 31
0.0
  0
LINE
  5
375
330
373
100
AcDbEntity
  8
1
  6
Continuous
 62
     0
370
    -2
100
AcDbLine
 10
627.0
 20
494.0
 30
0.0
 11
660.0
 21
493.9999999999999
 31
0.0
  0
LINE
  5
376
330
373
100
AcDbEntity
  8
1
  6
Continuous
 62
     0
370
    -2
100
AcDbLine
 10
660.0
 20
450.9999999999999
 30
0.0
 11
660.0
 21
492.9999999999999
 31
0.0
  0
SOLID
  5
377
330
373
100
AcDbEntity
  8
1
  6
Continuous
 62
     0
100
AcDbTrace
 10
659.8333333333333
 20
450.9999999999999
 30
0.0
 11
660.1666666666666
 21
450.9999999999999
 31
0.0
 12
660.0
 22
449.9999999999999
 32
0.0
 13
660.0
 23
449.9999999999999
 33
0.0
  0
SOLID
  5
378
330
373
100
AcDbEntity
  8
1
  6
Continuous
 62
     0
100
AcDbTrace
 10
659.8333333333333
 20
492.9999999999999
 30
0.0
 11
660.1666666666666
 21
492.9999999999999
 31
0.0
 12
660.0
 22
493.9999999999999
 32
0.0
 13
660.0
 23
493.9999999999999
 33
0.0
  0
POINT
  5
379
330
373
100
AcDbEntity
  8
Defpoints
  6
Continuous
 62
     0
100
AcDbPoint
 10
627.0
 20
450.0
 30
0.0
  0
POINT
  5
37A
330
373
100
AcDbEntity
  8
Defpoints
  6
Continuous
 62
     0
100
AcDbPoint
 10
627.0
 20
494.0
 30
0.0
  0
POINT
  5
37B
330
373
100
AcDbEntity
  8
Defpoints
  6
Continuous
 62
     0
100
AcDbPoint
 10
660.0
 20
493.9999999999999
 30
0.0
  0
ENDBLK
  5
37D
330
373
100
AcDbEntity
  8
0
100
AcDbBlockEnd
  0
ENDSEC
  0
SECTION
  2
ENTITIES
  0
LINE
  5
97
330
1E
100
AcDbEntity
  8
1
  6
Continuous
 62
     7
100
AcDbLine
 10
183.0
 20
494.0
 30
0.0
 11
183.0
 21
450.0
 31
0.0
  0
LINE
  5
98
330
1E
100
AcDbEntity
  8
1
  6
Continuous
 62
     7
100
AcDbLine
 10
183.0
 20
450.0
 30
0.0
 11
617.0
 21
450.0
 31
0.0
  0
LINE
  5
99
330
1E
100
AcDbEntity
  8
1
  6
Continuous
 62
     7
100
AcDbLine
 10
617.0
 20
450.0
 30
0.0
 11
617.0
 21
494.0
 31
0.0
  0
LINE
  5
9A
330
1E
100
AcDbEntity
  8
1
  6
Continuous
 62
     7
100
AcDbLine
 10
617.0
 20
494.0
 30
0.0
 11
183.0
 21
494.0
 31
0.0
  0
CIRCLE
  5
9B
330
1E
100
AcDbEntity
  8
1
  6
Continuous
 62
     7
100
AcDbCircle
 10
569.0
 20
474.0
 30
0.0
 40
1.0
  0
CIRCLE
  5
9C
330
1E
100
AcDbEntity
  8
1
  6
Continuous
 62
     7
100
AcDbCircle
 10
569.0
 20
465.5
 30
0.0
 40
1.0
  0
LINE
  5
9D
330
1E
100
AcDbEntity
  8
1
  6
Continuous
 62
     7
100
AcDbLine
 10
519.0
 20
468.0
 30
0.0
 11
519.0
 21
461.0
 31
0.0
  0
LINE
  5
9E
330
1E
100
AcDbEntity
  8
1
  6
Continuous
 62
     7
100
AcDbLine
 10
519.0
 20
461.0
 30
0.0
 11
530.0
 21
461.0
 31
0.0
  0
LINE
  5
9F
330
1E
100
AcDbEntity
  8
1
  6
Continuous
 62
     7
100
AcDbLine
 10
530.0
 20
461.0
 30
0.0
 11
530.0
 21
468.0
 31
0.0
  0
LINE
  5
A0
330
1E
100
AcDbEntity
  8
1
  6
Continuous
 62
     7
100
AcDbLine
 10
530.0
 20
468.0
 30
0.0
 11
519.0
 21
468.0
 31
0.0
  0
LINE
  5
A1
330
1E
100
AcDbEntity
  8
1
  6
Continuous
 62
     7
100
AcDbLine
 10
492.0
 20
468.0
 30
0.0
 11
492.0
 21
461.0
 31
0.0
  0
LINE
  5
A2
330
1E
100
AcDbEntity
  8
1
  6
Continuous
 62
     7
100
AcDbLine
 10
492.0
 20
461.0
 30
0.0
 11
503.0
 21
461.0
 31
0.0
  0
LINE
  5
A3
330
1E
100
AcDbEntity
  8
1
  6
Continuous
 62
     7
100
AcDbLine
 10
503.0
 20
461.0
 30
0.0
 11
503.0
 21
468.0
 31
0.0
  0
LINE
  5
A4
330
1E
100
AcDbEntity
  8
1
  6
Continuous
 62
     7
100
AcDbLine
 10
503.0
 20
468.0
 30
0.0
 11
492.0
 21
468.0
 31
0.0
  0
LINE
  5
A5
330
1E
100
AcDbEntity
  8
1
  6
Continuous
 62
     7
100
AcDbLine
 10
478.5
 20
468.0
 30
0.0
 11
478.5
 21
461.0
 31
0.0
  0
LINE
  5
A6
330
1E
100
AcDbEntity
  8
1
  6
Continuous
 62
     7
100
AcDbLine
 10
478.5
 20
461.0
 30
0.0
 11
489.5
 21
461.0
 31
0.0
  0
LINE
  5
A7
330
1E
100
AcDbEntity
  8
1
  6
Continuous
 62
     7
100
AcDbLine
 10
489.5
 20
461.0
 30
0.0
 11
489.5
 21
468.0
 31
0.0
  0
LINE
  5
A8
330
1E
100
AcDbEntity
  8
1
  6
Continuous
 62
     7
100
AcDbLine
 10
489.5
 20
468.0
 30
0.0
 11
478.5
 21
468.0
 31
0.0
  0
LINE
  5
A9
330
1E
100
AcDbEntity
  8
1
  6
Continuous
 62
     7
100
AcDbLine
 10
465.0
 20
468.0
 30
0.0
 11
465.0
 21
461.0
 31
0.0
  0
LINE
  5
AA
330
1E
100
AcDbEntity
  8
1
  6
Continuous
 62
     7
100
AcDbLine
 10
465.0
 20
461.0
 30
0.0
 11
476.0
 21
461.0
 31
0.0
  0
LINE
  5
AB
330
1E
100
AcDbEntity
  8
1
  6
Continuous
 62
     7
100
AcDbLine
 10
476.0
 20
461.0
 30
0.0
 11
476.0
 21
468.0
 31
0.0
  0
LINE
  5
AC
330
1E
100
AcDbEntity
  8
1
  6
Continuous
 62
     7
100
AcDbLine
 10
476.0
 20
468.0
 30
0.0
 11
465.0
 21
468.0
 31
0.0
  0
LINE
  5
AD
330
1E
100
AcDbEntity
  8
1
  6
Continuous
 62
     7
100
AcDbLine
 10
451.4999999999999
 20
468.0
 30
0.0
 11
451.4999999999999
 21
461.0
 31
0.0
  0
LINE
  5
AE
330
1E
100
AcDbEntity
  8
1
  6
Continuous
 62
     7
100
AcDbLine
 10
451.4999999999999
 20
461.0
 30
0.0
 11
462.5
 21
461.0
 31
0.0
  0
LINE
  5
AF
330
1E
100
AcDbEntity
  8
1
  6
Continuous
 62
     7
100
AcDbLine
 10
462.5
 20
461.0
 30
0.0
 11
462.5
 21
468.0
 31
0.0
  0
LINE
  5
B0
330
1E
100
AcDbEntity
  8
1
  6
Continuous
 62
     7
100
AcDbLine
 10
462.5
 20
468.0
 30
0.0
 11
451.4999999999999
 21
468.0
 31
0.0
  0
LINE
  5
B1
330
1E
100
AcDbEntity
  8
1
  6
Continuous
 62
     7
100
AcDbLine
 10
408.4999999999999
 20
468.0
 30
0.0
 11
408.4999999999999
 21
461.0
 31
0.0
  0
LINE
  5
B2
330
1E
100
AcDbEntity
  8
1
  6
Continuous
 62
     7
100
AcDbLine
 10
408.4999999999999
 20
461.0
 30
0.0
 11
419.5
 21
461.0
 31
0.0
  0
LINE
  5
B3
330
1E
100
AcDbEntity
  8
1
  6
Continuous
 62
     7
100
AcDbLine
 10
419.5
 20
461.0
 30
0.0
 11
419.5
 21
468.0
 31
0.0
  0
LINE
  5
B4
330
1E
100
AcDbEntity
  8
1
  6
Continuous
 62
     7
100
AcDbLine
 10
419.5
 20
468.0
 30
0.0
 11
408.4999999999999
 21
468.0
 31
0.0
  0
LINE
  5
B5
330
1E
100
AcDbEntity
  8
1
  6
Continuous
 62
     7
100
AcDbLine
 10
395.0
 20
468.0
 30
0.0
 11
395.0
 21
461.0
 31
0.0
  0
LINE
  5
B6
330
1E
100
AcDbEntity
  8
1
  6
Continuous
 62
     7
100
AcDbLine
 10
395.0
 20
461.0
 30
0.0
 11
406.0
 21
461.0
 31
0.0
  0
LINE
  5
B7
330
1E
100
AcDbEntity
  8
1
  6
Continuous
 62
     7
100
AcDbLine
 10
406.0
 20
461.0
 30
0.0
 11
406.0
 21
468.0
 31
0.0
  0
LINE
  5
B8
330
1E
100
AcDbEntity
  8
1
  6
Continuous
 62
     7
100
AcDbLine
 10
406.0
 20
468.0
 30
0.0
 11
395.0
 21
468.0
 31
0.0
  0
LINE
  5
B9
330
1E
100
AcDbEntity
  8
1
  6
Continuous
 62
     7
100
AcDbLine
 10
381.4999999999999
 20
468.0
 30
0.0
 11
381.4999999999999
 21
461.0
 31
0.0
  0
LINE
  5
BA
330
1E
100
AcDbEntity
  8
1
  6
Continuous
 62
     7
100
AcDbLine
 10
381.4999999999999
 20
461.0
 30
0.0
 11
392.5
 21
461.0
 31
0.0
  0
LINE
  5
BB
330
1E
100
AcDbEntity
  8
1
  6
Continuous
 62
     7
100
AcDbLine
 10
392.5
 20
461.0
 30
0.0
 11
392.5
 21
468.0
 31
0.0
  0
LINE
  5
BC
330
1E
100
AcDbEntity
  8
1
  6
Continuous
 62
     7
100
AcDbLine
 10
392.5
 20
468.0
 30
0.0
 11
381.4999999999999
 21
468.0
 31
0.0
  0
LINE
  5
BD
330
1E
100
AcDbEntity
  8
1
  6
Continuous
 62
     7
100
AcDbLine
 10
368.0
 20
468.0
 30
0.0
 11
368.0
 21
461.0
 31
0.0
  0
LINE
  5
BE
330
1E
100
AcDbEntity
  8
1
  6
Continuous
 62
     7
100
AcDbLine
 10
368.0
 20
461.0
 30
0.0
 11
379.0
 21
461.0
 31
0.0
  0
LINE
  5
BF
330
1E
100
AcDbEntity
  8
1
  6
Continuous
 62
     7
100
AcDbLine
 10
379.0
 20
461.0
 30
0.0
 11
379.0
 21
468.0
 31
0.0
  0
LINE
  5
C0
330
1E
100
AcDbEntity
  8
1
  6
Continuous
 62
     7
100
AcDbLine
 10
379.0
 20
468.0
 30
0.0
 11
368.0
 21
468.0
 31
0.0
  0
LINE
  5
C1
330
1E
100
AcDbEntity
  8
1
  6
Continuous
 62
     7
100
AcDbLine
 10
354.4999999999999
 20
468.0
 30
0.0
 11
354.4999999999999
 21
461.0
 31
0.0
  0
LINE
  5
C2
330
1E
100
AcDbEntity
  8
1
  6
Continuous
 62
     7
100
AcDbLine
 10
354.4999999999999
 20
461.0
 30
0.0
 11
365.5
 21
461.0
 31
0.0
  0
LINE
  5
C3
330
1E
100
AcDbEntity
  8
1
  6
Continuous
 62
     7
100
AcDbLine
 10
365.5
 20
461.0
 30
0.0
 11
365.5
 21
468.0
 31
0.0
  0
LINE
  5
C4
330
1E
100
AcDbEntity
  8
1
  6
Continuous
 62
     7
100
AcDbLine
 10
365.5
 20
468.0
 30
0.0
 11
354.4999999999999
 21
468.0
 31
0.0
  0
LINE
  5
C5
330
1E
100
AcDbEntity
  8
1
  6
Continuous
 62
     7
100
AcDbLine
 10
327.4999999999999
 20
468.0
 30
0.0
 11
327.4999999999999
 21
461.0
 31
0.0
  0
LINE
  5
C6
330
1E
100
AcDbEntity
  8
1
  6
Continuous
 62
     7
100
AcDbLine
 10
327.4999999999999
 20
461.0
 30
0.0
 11
338.5
 21
461.0
 31
0.0
  0
LINE
  5
C7
330
1E
100
AcDbEntity
  8
1
  6
Continuous
 62
     7
100
AcDbLine
 10
338.5
 20
461.0
 30
0.0
 11
338.5
 21
468.0
 31
0.0
  0
LINE
  5
C8
330
1E
100
AcDbEntity
  8
1
  6
Continuous
 62
     7
100
AcDbLine
 10
338.5
 20
468.0
 30
0.0
 11
327.4999999999999
 21
468.0
 31
0.0
  0
LINE
  5
C9
330
1E
100
AcDbEntity
  8
1
  6
Continuous
 62
     7
100
AcDbLine
 10
314.0
 20
468.0
 30
0.0
 11
314.0
 21
461.0
 31
0.0
  0
LINE
  5
CA
330
1E
100
AcDbEntity
  8
1
  6
Continuous
 62
     7
100
AcDbLine
 10
314.0
 20
461.0
 30
0.0
 11
325.0
 21
461.0
 31
0.0
  0
LINE
  5
CB
330
1E
100
AcDbEntity
  8
1
  6
Continuous
 62
     7
100
AcDbLine
 10
325.0
 20
461.0
 30
0.0
 11
325.0
 21
468.0
 31
0.0
  0
LINE
  5
CC
330
1E
100
AcDbEntity
  8
1
  6
Continuous
 62
     7
100
AcDbLine
 10
325.0
 20
468.0
 30
0.0
 11
314.0
 21
468.0
 31
0.0
  0
LINE
  5
CD
330
1E
100
AcDbEntity
  8
1
  6
Continuous
 62
     7
100
AcDbLine
 10
300.4999999999999
 20
468.0
 30
0.0
 11
300.4999999999999
 21
461.0
 31
0.0
  0
LINE
  5
CE
330
1E
100
AcDbEntity
  8
1
  6
Continuous
 62
     7
100
AcDbLine
 10
300.4999999999999
 20
461.0
 30
0.0
 11
311.5
 21
461.0
 31
0.0
  0
LINE
  5
CF
330
1E
100
AcDbEntity
  8
1
  6
Continuous
 62
     7
100
AcDbLine
 10
311.5
 20
461.0
 30
0.0
 11
311.5
 21
468.0
 31
0.0
  0
LINE
  5
D0
330
1E
100
AcDbEntity
  8
1
  6
Continuous
 62
     7
100
AcDbLine
 10
311.5
 20
468.0
 30
0.0
 11
300.4999999999999
 21
468.0
 31
0.0
  0
LINE
  5
D1
330
1E
100
AcDbEntity
  8
1
  6
Continuous
 62
     7
100
AcDbLine
 10
287.0
 20
468.0
 30
0.0
 11
287.0
 21
461.0
 31
0.0
  0
LINE
  5
D2
330
1E
100
AcDbEntity
  8
1
  6
Continuous
 62
     7
100
AcDbLine
 10
287.0
 20
461.0
 30
0.0
 11
298.0
 21
461.0
 31
0.0
  0
LINE
  5
D3
330
1E
100
AcDbEntity
  8
1
  6
Continuous
 62
     7
100
AcDbLine
 10
298.0
 20
461.0
 30
0.0
 11
298.0
 21
468.0
 31
0.0
  0
LINE
  5
D4
330
1E
100
AcDbEntity
  8
1
  6
Continuous
 62
     7
100
AcDbLine
 10
298.0
 20
468.0
 30
0.0
 11
287.0
 21
468.0
 31
0.0
  0
LINE
  5
D5
330
1E
100
AcDbEntity
  8
1
  6
Continuous
 62
     7
100
AcDbLine
 10
273.4999999999999
 20
468.0
 30
0.0
 11
273.4999999999999
 21
461.0
 31
0.0
  0
LINE
  5
D6
330
1E
100
AcDbEntity
  8
1
  6
Continuous
 62
     7
100
AcDbLine
 10
273.4999999999999
 20
461.0
 30
0.0
 11
284.5
 21
461.0
 31
0.0
  0
LINE
  5
D7
330
1E
100
AcDbEntity
  8
1
  6
Continuous
 62
     7
100
AcDbLine
 10
284.5
 20
461.0
 30
0.0
 11
284.5
 21
468.0
 31
0.0
  0
LINE
  5
D8
330
1E
100
AcDbEntity
  8
1
  6
Continuous
 62
     7
100
AcDbLine
 10
284.5
 20
468.0
 30
0.0
 11
273.4999999999999
 21
468.0
 31
0.0
  0
LINE
  5
D9
330
1E
100
AcDbEntity
  8
1
  6
Continuous
 62
     7
100
AcDbLine
 10
183.0
 20
489.0
 30
0.0
 11
617.0
 21
489.0
 31
0.0
  0
LINE
  5
DA
330
1E
100
AcDbEntity
  8
1
  6
Continuous
 62
     7
100
AcDbLine
 10
617.0
 20
455.0
 30
0.0
 11
183.0
 21
455.0
 31
0.0
  0
LINE
  5
DB
330
1E
100
AcDbEntity
  8
1
  6
Continuous
 62
     7
100
AcDbLine
 10
183.0
 20
491.0
 30
0.0
 11
617.0
 21
491.0
 31
0.0
  0
LINE
  5
DC
330
1E
100
AcDbEntity
  8
1
  6
Continuous
 62
     7
100
AcDbLine
 10
183.0
 20
453.0
 30
0.0
 11
617.0
 21
453.0
 31
0.0
  0
LINE
  5
DD
330
1E
100
AcDbEntity
  8
1
  6
Continuous
 62
     7
100
AcDbLine
 10
331.0
 20
477.0
 30
0.0
 11
331.0
 21
473.0
 31
0.0
  0
LINE
  5
DE
330
1E
100
AcDbEntity
  8
1
  6
Continuous
 62
     7
100
AcDbLine
 10
331.0
 20
473.0
 30
0.0
 11
335.0
 21
473.0
 31
0.0
  0
LINE
  5
DF
330
1E
100
AcDbEntity
  8
1
  6
Continuous
 62
     7
100
AcDbLine
 10
335.0
 20
473.0
 30
0.0
 11
335.0
 21
477.0
 31
0.0
  0
LINE
  5
E0
330
1E
100
AcDbEntity
  8
1
  6
Continuous
 62
     7
100
AcDbLine
 10
335.0
 20
477.0
 30
0.0
 11
331.0
 21
477.0
 31
0.0
  0
LINE
  5
E1
330
1E
100
AcDbEntity
  8
1
  6
Continuous
 62
     7
100
AcDbLine
 10
331.0
 20
475.0
 30
0.0
 11
335.0
 21
475.0
 31
0.0
  0
LINE
  5
E2
330
1E
100
AcDbEntity
  8
1
  6
Continuous
 62
     7
100
AcDbLine
 10
333.0
 20
477.0
 30
0.0
 11
333.0
 21
473.0
 31
0.0
  0
LINE
  5
E3
330
1E
100
AcDbEntity
  8
1
  6
Continuous
 62
     7
100
AcDbLine
 10
317.5
 20
477.0
 30
0.0
 11
317.5
 21
473.0
 31
0.0
  0
LINE
  5
E4
330
1E
100
AcDbEntity
  8
1
  6
Continuous
 62
     7
100
AcDbLine
 10
317.5
 20
473.0
 30
0.0
 11
321.4999999999999
 21
473.0
 31
0.0
  0
LINE
  5
E5
330
1E
100
AcDbEntity
  8
1
  6
Continuous
 62
     7
100
AcDbLine
 10
321.4999999999999
 20
473.0
 30
0.0
 11
321.4999999999999
 21
477.0
 31
0.0
  0
LINE
  5
E6
330
1E
100
AcDbEntity
  8
1
  6
Continuous
 62
     7
100
AcDbLine
 10
321.4999999999999
 20
477.0
 30
0.0
 11
317.5
 21
477.0
 31
0.0
  0
LINE
  5
E7
330
1E
100
AcDbEntity
  8
1
  6
Continuous
 62
     7
100
AcDbLine
 10
304.0
 20
477.0
 30
0.0
 11
304.0
 21
473.0
 31
0.0
  0
LINE
  5
E8
330
1E
100
AcDbEntity
  8
1
  6
Continuous
 62
     7
100
AcDbLine
 10
304.0
 20
473.0
 30
0.0
 11
308.0
 21
473.0
 31
0.0
  0
LINE
  5
E9
330
1E
100
AcDbEntity
  8
1
  6
Continuous
 62
     7
100
AcDbLine
 10
308.0
 20
473.0
 30
0.0
 11
308.0
 21
477.0
 31
0.0
  0
LINE
  5
EA
330
1E
100
AcDbEntity
  8
1
  6
Continuous
 62
     7
100
AcDbLine
 10
308.0
 20
477.0
 30
0.0
 11
304.0
 21
477.0
 31
0.0
  0
LINE
  5
EB
330
1E
100
AcDbEntity
  8
1
  6
Continuous
 62
     7
100
AcDbLine
 10
290.5
 20
477.0
 30
0.0
 11
290.5
 21
473.0
 31
0.0
  0
LINE
  5
EC
330
1E
100
AcDbEntity
  8
1
  6
Continuous
 62
     7
100
AcDbLine
 10
290.5
 20
473.0
 30
0.0
 11
294.4999999999999
 21
473.0
 31
0.0
  0
LINE
  5
ED
330
1E
100
AcDbEntity
  8
1
  6
Continuous
 62
     7
100
AcDbLine
 10
294.4999999999999
 20
473.0
 30
0.0
 11
294.4999999999999
 21
477.0
 31
0.0
  0
LINE
  5
EE
330
1E
100
AcDbEntity
  8
1
  6
Continuous
 62
     7
100
AcDbLine
 10
294.4999999999999
 20
477.0
 30
0.0
 11
290.5
 21
477.0
 31
0.0
  0
LINE
  5
EF
330
1E
100
AcDbEntity
  8
1
  6
Continuous
 62
     7
100
AcDbLine
 10
277.0
 20
477.0
 30
0.0
 11
277.0
 21
473.0
 31
0.0
  0
LINE
  5
F0
330
1E
100
AcDbEntity
  8
1
  6
Continuous
 62
     7
100
AcDbLine
 10
277.0
 20
473.0
 30
0.0
 11
281.0
 21
473.0
 31
0.0
  0
LINE
  5
F1
330
1E
100
AcDbEntity
  8
1
  6
Continuous
 62
     7
100
AcDbLine
 10
281.0
 20
473.0
 30
0.0
 11
281.0
 21
477.0
 31
0.0
  0
LINE
  5
F2
330
1E
100
AcDbEntity
  8
1
  6
Continuous
 62
     7
100
AcDbLine
 10
281.0
 20
477.0
 30
0.0
 11
277.0
 21
477.0
 31
0.0
  0
LINE
  5
F3
330
1E
100
AcDbEntity
  8
1
  6
Continuous
 62
     7
100
AcDbLine
 10
363.4599999999999
 20
477.0
 30
0.0
 11
363.4599999999999
 21
473.0
 31
0.0
  0
LINE
  5
F4
330
1E
100
AcDbEntity
  8
1
  6
Continuous
 62
     7
100
AcDbLine
 10
363.4599999999999
 20
473.0
 30
0.0
 11
360.0
 21
475.0
 31
0.0
  0
LINE
  5
F5
330
1E
100
AcDbEntity
  8
1
  6
Continuous
 62
     7
100
AcDbLine
 10
360.0
 20
475.0
 30
0.0
 11
363.4599999999999
 21
477.0
 31
0.0
  0
LINE
  5
F6
330
1E
100
AcDbEntity
  8
1
  6
Continuous
 62
     7
100
AcDbLine
 10
360.0
 20
477.0
 30
0.0
 11
360.0
 21
473.0
 31
0.0
  0
LINE
  5
F7
330
1E
100
AcDbEntity
  8
1
  6
Continuous
 62
     7
100
AcDbLine
 10
360.0
 20
473.0
 30
0.0
 11
356.54
 21
475.0
 31
0.0
  0
LINE
  5
F8
330
1E
100
AcDbEntity
  8
1
  6
Continuous
 62
     7
100
AcDbLine
 10
356.54
 20
475.0
 30
0.0
 11
360.0
 21
477.0
 31
0.0
  0
LINE
  5
F9
330
1E
100
AcDbEntity
  8
1
  6
Continuous
 62
     7
100
AcDbLine
 10
397.04
 20
477.0
 30
0.0
 11
397.04
 21
473.0
 31
0.0
  0
LINE
  5
FA
330
1E
100
AcDbEntity
  8
1
  6
Continuous
 62
     7
100
AcDbLine
 10
397.04
 20
473.0
 30
0.0
 11
400.4999999999999
 21
475.0
 31
0.0
  0
LINE
  5
FB
330
1E
100
AcDbEntity
  8
1
  6
Continuous
 62
     7
100
AcDbLine
 10
400.4999999999999
 20
475.0
 30
0.0
 11
397.04
 21
477.0
 31
0.0
  0
LINE
  5
FC
330
1E
100
AcDbEntity
  8
1
  6
Continuous
 62
     7
100
AcDbLine
 10
400.4999999999999
 20
477.0
 30
0.0
 11
400.4999999999999
 21
473.0
 31
0.0
  0
LINE
  5
FD
330
1E
100
AcDbEntity
  8
1
  6
Continuous
 62
     7
100
AcDbLine
 10
400.4999999999999
 20
473.0
 30
0.0
 11
403.96
 21
475.0
 31
0.0
  0
LINE
  5
FE
330
1E
100
AcDbEntity
  8
1
  6
Continuous
 62
     7
100
AcDbLine
 10
403.96
 20
475.0
 30
0.0
 11
400.4999999999999
 21
477.0
 31
0.0
  0
LINE
  5
FF
330
1E
100
AcDbEntity
  8
1
  6
Continuous
 62
     7
100
AcDbLine
 10
468.5
 20
473.27
 30
0.0
 11
472.5
 21
473.27
 31
0.0
  0
LINE
  5
100
330
1E
100
AcDbEntity
  8
1
  6
Continuous
 62
     7
100
AcDbLine
 10
472.5
 20
473.27
 30
0.0
 11
470.5
 21
476.73
 31
0.0
  0
LINE
  5
101
330
1E
100
AcDbEntity
  8
1
  6
Continuous
 62
     7
100
AcDbLine
 10
470.5
 20
476.73
 30
0.0
 11
468.5
 21
473.27
 31
0.0
  0
LINE
  5
102
330
1E
100
AcDbEntity
  8
1
  6
Continuous
 62
     7
100
AcDbLine
 10
486.0
 20
476.73
 30
0.0
 11
482.0
 21
476.73
 31
0.0
  0
LINE
  5
103
330
1E
100
AcDbEntity
  8
1
  6
Continuous
 62
     7
100
AcDbLine
 10
482.0
 20
476.73
 30
0.0
 11
484.0
 21
473.27
 31
0.0
  0
LINE
  5
104
330
1E
100
AcDbEntity
  8
1
  6
Continuous
 62
     7
100
AcDbLine
 10
484.0
 20
473.27
 30
0.0
 11
486.0
 21
476.73
 31
0.0
  0
TEXT
  5
105
330
1E
100
AcDbEntity
  8
1
  6
Continuous
 62
     7
100
AcDbText
 10
566.3999999999999
 20
456.5
 30
0.0
 40
3.0
  1
HDD
 41
0.616667
  7
KANJI
100
AcDbText
  0
TEXT
  5
106
330
1E
100
AcDbEntity
  8
1
  6
Continuous
 62
     7
100
AcDbText
 10
521.9
 20
456.5
 30
0.0
 40
3.0
  1
REC
 41
0.616667
  7
KANJI
100
AcDbText
  0
TEXT
  5
107
330
1E
100
AcDbEntity
  8
1
  6
Continuous
 62
     7
100
AcDbText
 10
492.1249999999999
 20
473.2499999999999
 30
0.0
 40
3.0
  1
SELECT
 41
0.616667
  7
KANJI
100
AcDbText
  0
TEXT
  5
108
330
1E
100
AcDbEntity
  8
1
  6
Continuous
 62
     7
100
AcDbText
 10
454.3999999999999
 20
456.5
 30
0.0
 40
3.0
  1
ESC
 41
0.616667
  7
KANJI
100
AcDbText
  0
TEXT
  5
109
330
1E
100
AcDbEntity
  8
1
  6
Continuous
 62
     7
100
AcDbText
 10
453.475
 20
473.2499999999999
 30
0.0
 40
3.0
  1
MENU
 41
0.616667
  7
KANJI
100
AcDbText
  0
TEXT
  5
10A
330
1E
100
AcDbEntity
  8
1
  6
Continuous
 62
     7
100
AcDbText
 10
329.475
 20
456.5
 30
0.0
 40
3.0
  1
QUAD
 41
0.616667
  7
KANJI
100
AcDbText
  0
TEXT
  5
10B
330
1E
100
AcDbEntity
  8
1
  6
Continuous
 62
     7
100
AcDbText
 10
318.75
 20
456.5
 30
0.0
 40
3.0
  1
4
 41
0.616667
  7
KANJI
100
AcDbText
  0
TEXT
  5
10C
330
1E
100
AcDbEntity
  8
1
  6
Continuous
 62
     7
100
AcDbText
 10
305.25
 20
456.5
 30
0.0
 40
3.0
  1
3
 41
0.616667
  7
KANJI
100
AcDbText
  0
TEXT
  5
10D
330
1E
100
AcDbEntity
  8
1
  6
Continuous
 62
     7
100
AcDbText
 10
291.75
 20
456.5
 30
0.0
 40
3.0
  1
2
 41
0.616667
  7
KANJI
100
AcDbText
  0
TEXT
  5
10E
330
1E
100
AcDbEntity
  8
1
  6
Continuous
 62
     7
100
AcDbText
 10
278.25
 20
456.5
 30
0.0
 40
3.0
  1
1
 41
0.616667
  7
KANJI
100
AcDbText
  0
TEXT
  5
10F
330
1E
100
AcDbEntity
  8
1
  6
Continuous
 62
     7
100
AcDbText
 10
211.2499999999999
 20
464.7499999999999
 30
0.0
 40
5.0
  1
MDR-400
 41
0.6
  7
KANJI
100
AcDbText
  0
TEXT
  5
110
330
1E
100
AcDbEntity
  8
1
  6
Continuous
 62
     7
100
AcDbText
 10
564.5499999999999
 20
477.7499999999999
 30
0.0
 40
3.0
  1
POWER
 41
0.616667
  7
KANJI
100
AcDbText
  0
LINE
  5
111
330
1E
100
AcDbEntity
  8
1
  6
Continuous
 62
     7
100
AcDbLine
 10
214.0
 20
450.0
 30
0.0
 11
214.0
 21
444.0
 31
0.0
  0
LINE
  5
112
330
1E
100
AcDbEntity
  8
1
  6
Continuous
 62
     7
100
AcDbLine
 10
214.0
 20
444.0
 30
0.0
 11
234.0
 21
444.0
 31
0.0
  0
LINE
  5
113
330
1E
100
AcDbEntity
  8
1
  6
Continuous
 62
     7
100
AcDbLine
 10
234.0
 20
444.0
 30
0.0
 11
234.0
 21
450.0
 31
0.0
  0
LINE
  5
114
330
1E
100
AcDbEntity
  8
1
  6
Continuous
 62
     7
100
AcDbLine
 10
566.0
 20
450.0
 30
0.0
 11
566.0
 21
444.0
 31
0.0
  0
LINE
  5
115
330
1E
100
AcDbEntity
  8
1
  6
Continuous
 62
     7
100
AcDbLine
 10
566.0
 20
444.0
 30
0.0
 11
586.0
 21
444.0
 31
0.0
  0
LINE
  5
116
330
1E
100
AcDbEntity
  8
1
  6
Continuous
 62
     7
100
AcDbLine
 10
586.0
 20
444.0
 30
0.0
 11
586.0
 21
450.0
 31
0.0
  0
LINE
  5
117
330
1E
100
AcDbEntity
  8
1
  6
Continuous
 62
     7
100
AcDbLine
 10
183.0
 20
950.0
 30
0.0
 11
183.0
 21
650.0
 31
0.0
  0
LINE
  5
118
330
1E
100
AcDbEntity
  8
1
  6
Continuous
 62
     7
100
AcDbLine
 10
183.0
 20
650.0
 30
0.0
 11
617.0
 21
650.0
 31
0.0
  0
LINE
  5
119
330
1E
100
AcDbEntity
  8
1
  6
Continuous
 62
     7
100
AcDbLine
 10
617.0
 20
650.0
 30
0.0
 11
617.0
 21
950.0
 31
0.0
  0
LINE
  5
11A
330
1E
100
AcDbEntity
  8
1
  6
Continuous
 62
     7
100
AcDbLine
 10
617.0
 20
950.0
 30
0.0
 11
183.0
 21
950.0
 31
0.0
  0
LINE
  5
11B
330
1E
100
AcDbEntity
  8
1
  6
Continuous
 62
     7
100
AcDbLine
 10
183.0
 20
655.0
 30
0.0
 11
617.0
 21
655.0
 31
0.0
  0
LINE
  5
11C
330
1E
100
AcDbEntity
  8
1
  6
Continuous
 62
     7
100
AcDbLine
 10
183.0
 20
653.0
 30
0.0
 11
617.0
 21
653.0
 31
0.0
  0
CIRCLE
  5
11D
330
1E
100
AcDbEntity
  8
1
  6
Continuous
 62
     7
100
AcDbCircle
 10
199.0
 20
660.0
 30
0.0
 40
2.75
  0
LINE
  5
11E
330
1E
100
AcDbEntity
  8
1
  6
Continuous
 62
     7
100
AcDbLine
 10
197.25
 20
660.0
 30
0.0
 11
200.7499999999999
 21
660.0
 31
0.0
  0
LINE
  5
11F
330
1E
100
AcDbEntity
  8
1
  6
Continuous
 62
     7
100
AcDbLine
 10
199.0
 20
661.7499999999999
 30
0.0
 11
199.0
 21
658.25
 31
0.0
  0
CIRCLE
  5
120
330
1E
100
AcDbEntity
  8
1
  6
Continuous
 62
     7
100
AcDbCircle
 10
333.0
 20
660.0
 30
0.0
 40
2.75
  0
LINE
  5
121
330
1E
100
AcDbEntity
  8
1
  6
Continuous
 62
     7
100
AcDbLine
 10
331.25
 20
660.0
 30
0.0
 11
334.75
 21
660.0
 31
0.0
  0
LINE
  5
122
330
1E
100
AcDbEntity
  8
1
  6
Continuous
 62
     7
100
AcDbLine
 10
333.0
 20
661.7499999999999
 30
0.0
 11
333.0
 21
658.25
 31
0.0
  0
CIRCLE
  5
123
330
1E
100
AcDbEntity
  8
1
  6
Continuous
 62
     7
100
AcDbCircle
 10
467.0
 20
660.0
 30
0.0
 40
2.75
  0
LINE
  5
124
330
1E
100
AcDbEntity
  8
1
  6
Continuous
 62
     7
100
AcDbLine
 10
465.2499999999999
 20
660.0
 30
0.0
 11
468.75
 21
660.0
 31
0.0
  0
LINE
  5
125
330
1E
100
AcDbEntity
  8
1
  6
Continuous
 62
     7
100
AcDbLine
 10
467.0
 20
661.7499999999999
 30
0.0
 11
467.0
 21
658.25
 31
0.0
  0
LINE
  5
126
330
1E
100
AcDbEntity
  8
1
  6
Continuous
 62
     7
100
AcDbLine
 10
273.4999999999999
 20
650.0
 30
0.0
 11
273.4999999999999
 21
648.5
 31
0.0
  0
LINE
  5
127
330
1E
100
AcDbEntity
  8
1
  6
Continuous
 62
     7
100
AcDbLine
 10
273.4999999999999
 20
648.5
 30
0.0
 11
284.5
 21
648.5
 31
0.0
  0
LINE
  5
128
330
1E
100
AcDbEntity
  8
1
  6
Continuous
 62
     7
100
AcDbLine
 10
284.5
 20
648.5
 30
0.0
 11
284.5
 21
650.0
 31
0.0
  0
LINE
  5
129
330
1E
100
AcDbEntity
  8
1
  6
Continuous
 62
     7
100
AcDbLine
 10
287.0
 20
650.0
 30
0.0
 11
287.0
 21
648.5
 31
0.0
  0
LINE
  5
12A
330
1E
100
AcDbEntity
  8
1
  6
Continuous
 62
     7
100
AcDbLine
 10
287.0
 20
648.5
 30
0.0
 11
298.0
 21
648.5
 31
0.0
  0
LINE
  5
12B
330
1E
100
AcDbEntity
  8
1
  6
Continuous
 62
     7
100
AcDbLine
 10
298.0
 20
648.5
 30
0.0
 11
298.0
 21
650.0
 31
0.0
  0
LINE
  5
12C
330
1E
100
AcDbEntity
  8
1
  6
Continuous
 62
     7
100
AcDbLine
 10
300.4999999999999
 20
650.0
 30
0.0
 11
300.4999999999999
 21
648.5
 31
0.0
  0
LINE
  5
12D
330
1E
100
AcDbEntity
  8
1
  6
Continuous
 62
     7
100
AcDbLine
 10
300.4999999999999
 20
648.5
 30
0.0
 11
311.5
 21
648.5
 31
0.0
  0
LINE
  5
12E
330
1E
100
AcDbEntity
  8
1
  6
Continuous
 62
     7
100
AcDbLine
 10
311.5
 20
648.5
 30
0.0
 11
311.5
 21
650.0
 31
0.0
  0
LINE
  5
12F
330
1E
100
AcDbEntity
  8
1
  6
Continuous
 62
     7
100
AcDbLine
 10
314.0
 20
650.0
 30
0.0
 11
314.0
 21
648.5
 31
0.0
  0
LINE
  5
130
330
1E
100
AcDbEntity
  8
1
  6
Continuous
 62
     7
100
AcDbLine
 10
314.0
 20
648.5
 30
0.0
 11
325.0
 21
648.5
 31
0.0
  0
LINE
  5
131
330
1E
100
AcDbEntity
  8
1
  6
Continuous
 62
     7
100
AcDbLine
 10
325.0
 20
648.5
 30
0.0
 11
325.0
 21
650.0
 31
0.0
  0
LINE
  5
132
330
1E
100
AcDbEntity
  8
1
  6
Continuous
 62
     7
100
AcDbLine
 10
327.4999999999999
 20
650.0
 30
0.0
 11
327.4999999999999
 21
648.5
 31
0.0
  0
LINE
  5
133
330
1E
100
AcDbEntity
  8
1
  6
Continuous
 62
     7
100
AcDbLine
 10
327.4999999999999
 20
648.5
 30
0.0
 11
338.5
 21
648.5
 31
0.0
  0
LINE
  5
134
330
1E
100
AcDbEntity
  8
1
  6
Continuous
 62
     7
100
AcDbLine
 10
338.5
 20
648.5
 30
0.0
 11
338.5
 21
650.0
 31
0.0
  0
LINE
  5
135
330
1E
100
AcDbEntity
  8
1
  6
Continuous
 62
     7
100
AcDbLine
 10
354.4999999999999
 20
650.0
 30
0.0
 11
354.4999999999999
 21
648.5
 31
0.0
  0
LINE
  5
136
330
1E
100
AcDbEntity
  8
1
  6
Continuous
 62
     7
100
AcDbLine
 10
354.4999999999999
 20
648.5
 30
0.0
 11
365.5
 21
648.5
 31
0.0
  0
LINE
  5
137
330
1E
100
AcDbEntity
  8
1
  6
Continuous
 62
     7
100
AcDbLine
 10
365.5
 20
648.5
 30
0.0
 11
365.5
 21
650.0
 31
0.0
  0
LINE
  5
138
330
1E
100
AcDbEntity
  8
1
  6
Continuous
 62
     7
100
AcDbLine
 10
368.0
 20
650.0
 30
0.0
 11
368.0
 21
648.5
 31
0.0
  0
LINE
  5
139
330
1E
100
AcDbEntity
  8
1
  6
Continuous
 62
     7
100
AcDbLine
 10
368.0
 20
648.5
 30
0.0
 11
379.0
 21
648.5
 31
0.0
  0
LINE
  5
13A
330
1E
100
AcDbEntity
  8
1
  6
Continuous
 62
     7
100
AcDbLine
 10
379.0
 20
648.5
 30
0.0
 11
379.0
 21
650.0
 31
0.0
  0
LINE
  5
13B
330
1E
100
AcDbEntity
  8
1
  6
Continuous
 62
     7
100
AcDbLine
 10
381.4999999999999
 20
650.0
 30
0.0
 11
381.4999999999999
 21
648.5
 31
0.0
  0
LINE
  5
13C
330
1E
100
AcDbEntity
  8
1
  6
Continuous
 62
     7
100
AcDbLine
 10
381.4999999999999
 20
648.5
 30
0.0
 11
392.5
 21
648.5
 31
0.0
  0
LINE
  5
13D
330
1E
100
AcDbEntity
  8
1
  6
Continuous
 62
     7
100
AcDbLine
 10
392.5
 20
648.5
 30
0.0
 11
392.5
 21
650.0
 31
0.0
  0
LINE
  5
13E
330
1E
100
AcDbEntity
  8
1
  6
Continuous
 62
     7
100
AcDbLine
 10
395.0
 20
650.0
 30
0.0
 11
395.0
 21
648.5
 31
0.0
  0
LINE
  5
13F
330
1E
100
AcDbEntity
  8
1
  6
Continuous
 62
     7
100
AcDbLine
 10
395.0
 20
648.5
 30
0.0
 11
406.0
 21
648.5
 31
0.0
  0
LINE
  5
140
330
1E
100
AcDbEntity
  8
1
  6
Continuous
 62
     7
100
AcDbLine
 10
406.0
 20
648.5
 30
0.0
 11
406.0
 21
650.0
 31
0.0
  0
LINE
  5
141
330
1E
100
AcDbEntity
  8
1
  6
Continuous
 62
     7
100
AcDbLine
 10
408.4999999999999
 20
650.0
 30
0.0
 11
408.4999999999999
 21
648.5
 31
0.0
  0
LINE
  5
142
330
1E
100
AcDbEntity
  8
1
  6
Continuous
 62
     7
100
AcDbLine
 10
408.4999999999999
 20
648.5
 30
0.0
 11
419.5
 21
648.5
 31
0.0
  0
LINE
  5
143
330
1E
100
AcDbEntity
  8
1
  6
Continuous
 62
     7
100
AcDbLine
 10
419.5
 20
648.5
 30
0.0
 11
419.5
 21
650.0
 31
0.0
  0
LINE
  5
144
330
1E
100
AcDbEntity
  8
1
  6
Continuous
 62
     7
100
AcDbLine
 10
451.4999999999999
 20
650.0
 30
0.0
 11
451.4999999999999
 21
648.5
 31
0.0
  0
LINE
  5
145
330
1E
100
AcDbEntity
  8
1
  6
Continuous
 62
     7
100
AcDbLine
 10
451.4999999999999
 20
648.5
 30
0.0
 11
462.5
 21
648.5
 31
0.0
  0
LINE
  5
146
330
1E
100
AcDbEntity
  8
1
  6
Continuous
 62
     7
100
AcDbLine
 10
462.5
 20
648.5
 30
0.0
 11
462.5
 21
650.0
 31
0.0
  0
LINE
  5
147
330
1E
100
AcDbEntity
  8
1
  6
Continuous
 62
     7
100
AcDbLine
 10
465.0
 20
650.0
 30
0.0
 11
465.0
 21
648.5
 31
0.0
  0
LINE
  5
148
330
1E
100
AcDbEntity
  8
1
  6
Continuous
 62
     7
100
AcDbLine
 10
465.0
 20
648.5
 30
0.0
 11
476.0
 21
648.5
 31
0.0
  0
LINE
  5
149
330
1E
100
AcDbEntity
  8
1
  6
Continuous
 62
     7
100
AcDbLine
 10
476.0
 20
648.5
 30
0.0
 11
476.0
 21
650.0
 31
0.0
  0
LINE
  5
14A
330
1E
100
AcDbEntity
  8
1
  6
Continuous
 62
     7
100
AcDbLine
 10
478.5
 20
650.0
 30
0.0
 11
478.5
 21
648.5
 31
0.0
  0
LINE
  5
14B
330
1E
100
AcDbEntity
  8
1
  6
Continuous
 62
     7
100
AcDbLine
 10
478.5
 20
648.5
 30
0.0
 11
489.5
 21
648.5
 31
0.0
  0
LINE
  5
14C
330
1E
100
AcDbEntity
  8
1
  6
Continuous
 62
     7
100
AcDbLine
 10
489.5
 20
648.5
 30
0.0
 11
489.5
 21
650.0
 31
0.0
  0
LINE
  5
14D
330
1E
100
AcDbEntity
  8
1
  6
Continuous
 62
     7
100
AcDbLine
 10
492.0
 20
650.0
 30
0.0
 11
492.0
 21
648.5
 31
0.0
  0
LINE
  5
14E
330
1E
100
AcDbEntity
  8
1
  6
Continuous
 62
     7
100
AcDbLine
 10
492.0
 20
648.5
 30
0.0
 11
503.0
 21
648.5
 31
0.0
  0
LINE
  5
14F
330
1E
100
AcDbEntity
  8
1
  6
Continuous
 62
     7
100
AcDbLine
 10
503.0
 20
648.5
 30
0.0
 11
503.0
 21
650.0
 31
0.0
  0
LINE
  5
150
330
1E
100
AcDbEntity
  8
1
  6
Continuous
 62
     7
100
AcDbLine
 10
519.0
 20
650.0
 30
0.0
 11
519.0
 21
648.5
 31
0.0
  0
LINE
  5
151
330
1E
100
AcDbEntity
  8
1
  6
Continuous
 62
     7
100
AcDbLine
 10
519.0
 20
648.5
 30
0.0
 11
530.0
 21
648.5
 31
0.0
  0
LINE
  5
152
330
1E
100
AcDbEntity
  8
1
  6
Continuous
 62
     7
100
AcDbLine
 10
530.0
 20
648.5
 30
0.0
 11
530.0
 21
650.0
 31
0.0
  0
CIRCLE
  5
153
330
1E
100
AcDbEntity
  8
1
  6
Continuous
 62
     7
100
AcDbCircle
 10
601.0
 20
660.0
 30
0.0
 40
2.75
  0
LINE
  5
154
330
1E
100
AcDbEntity
  8
1
  6
Continuous
 62
     7
100
AcDbLine
 10
599.2499999999999
 20
660.0
 30
0.0
 11
602.7499999999999
 21
660.0
 31
0.0
  0
LINE
  5
155
330
1E
100
AcDbEntity
  8
1
  6
Continuous
 62
     7
100
AcDbLine
 10
601.0
 20
661.7499999999999
 30
0.0
 11
601.0
 21
658.25
 31
0.0
  0
LINE
  5
156
330
1E
100
AcDbEntity
  8
1
  6
Continuous
 62
     7
100
AcDbLine
 10
563.25
 20
950.0
 30
0.0
 11
563.25
 21
961.0
 31
0.0
  0
LINE
  5
157
330
1E
100
AcDbEntity
  8
1
  6
Continuous
 62
     7
100
AcDbLine
 10
563.25
 20
961.0
 30
0.0
 11
572.75
 21
961.0
 31
0.0
  0
LINE
  5
158
330
1E
100
AcDbEntity
  8
1
  6
Continuous
 62
     7
100
AcDbLine
 10
572.75
 20
961.0
 30
0.0
 11
572.75
 21
950.0
 31
0.0
  0
LINE
  5
159
330
1E
100
AcDbEntity
  8
1
  6
Continuous
 62
     7
100
AcDbLine
 10
563.25
 20
958.0
 30
0.0
 11
562.5
 21
958.0
 31
0.0
  0
LINE
  5
15A
330
1E
100
AcDbEntity
  8
1
  6
Continuous
 62
     7
100
AcDbLine
 10
562.5
 20
958.0
 30
0.0
 11
562.5
 21
956.0
 31
0.0
  0
LINE
  5
15B
330
1E
100
AcDbEntity
  8
1
  6
Continuous
 62
     7
100
AcDbLine
 10
562.5
 20
956.0
 30
0.0
 11
563.25
 21
956.0
 31
0.0
  0
LINE
  5
15C
330
1E
100
AcDbEntity
  8
1
  6
Continuous
 62
     7
100
AcDbLine
 10
572.75
 20
958.0
 30
0.0
 11
573.5
 21
958.0
 31
0.0
  0
LINE
  5
15D
330
1E
100
AcDbEntity
  8
1
  6
Continuous
 62
     7
100
AcDbLine
 10
573.5
 20
958.0
 30
0.0
 11
573.5
 21
956.0
 31
0.0
  0
LINE
  5
15E
330
1E
100
AcDbEntity
  8
1
  6
Continuous
 62
     7
100
AcDbLine
 10
573.5
 20
956.0
 30
0.0
 11
572.75
 21
956.0
 31
0.0
  0
LINE
  5
15F
330
1E
100
AcDbEntity
  8
1
  6
Continuous
 62
     7
100
AcDbLine
 10
543.25
 20
950.0
 30
0.0
 11
543.25
 21
961.0
 31
0.0
  0
LINE
  5
160
330
1E
100
AcDbEntity
  8
1
  6
Continuous
 62
     7
100
AcDbLine
 10
543.25
 20
961.0
 30
0.0
 11
552.7499999999999
 21
961.0
 31
0.0
  0
LINE
  5
161
330
1E
100
AcDbEntity
  8
1
  6
Continuous
 62
     7
100
AcDbLine
 10
552.7499999999999
 20
961.0
 30
0.0
 11
552.7499999999999
 21
950.0
 31
0.0
  0
LINE
  5
162
330
1E
100
AcDbEntity
  8
1
  6
Continuous
 62
     7
100
AcDbLine
 10
543.25
 20
958.0
 30
0.0
 11
542.4999999999999
 21
958.0
 31
0.0
  0
LINE
  5
163
330
1E
100
AcDbEntity
  8
1
  6
Continuous
 62
     7
100
AcDbLine
 10
542.4999999999999
 20
958.0
 30
0.0
 11
542.4999999999999
 21
956.0
 31
0.0
  0
LINE
  5
164
330
1E
100
AcDbEntity
  8
1
  6
Continuous
 62
     7
100
AcDbLine
 10
542.4999999999999
 20
956.0
 30
0.0
 11
543.25
 21
956.0
 31
0.0
  0
LINE
  5
165
330
1E
100
AcDbEntity
  8
1
  6
Continuous
 62
     7
100
AcDbLine
 10
552.7499999999999
 20
958.0
 30
0.0
 11
553.5
 21
958.0
 31
0.0
  0
LINE
  5
166
330
1E
100
AcDbEntity
  8
1
  6
Continuous
 62
     7
100
AcDbLine
 10
553.5
 20
958.0
 30
0.0
 11
553.5
 21
956.0
 31
0.0
  0
LINE
  5
167
330
1E
100
AcDbEntity
  8
1
  6
Continuous
 62
     7
100
AcDbLine
 10
553.5
 20
956.0
 30
0.0
 11
552.7499999999999
 21
956.0
 31
0.0
  0
LINE
  5
168
330
1E
100
AcDbEntity
  8
1
  6
Continuous
 62
     7
100
AcDbLine
 10
525.25
 20
950.0
 30
0.0
 11
525.25
 21
961.0
 31
0.0
  0
LINE
  5
169
330
1E
100
AcDbEntity
  8
1
  6
Continuous
 62
     7
100
AcDbLine
 10
525.25
 20
961.0
 30
0.0
 11
534.75
 21
961.0
 31
0.0
  0
LINE
  5
16A
330
1E
100
AcDbEntity
  8
1
  6
Continuous
 62
     7
100
AcDbLine
 10
534.75
 20
961.0
 30
0.0
 11
534.75
 21
950.0
 31
0.0
  0
LINE
  5
16B
330
1E
100
AcDbEntity
  8
1
  6
Continuous
 62
     7
100
AcDbLine
 10
525.25
 20
958.0
 30
0.0
 11
524.5
 21
958.0
 31
0.0
  0
LINE
  5
16C
330
1E
100
AcDbEntity
  8
1
  6
Continuous
 62
     7
100
AcDbLine
 10
524.5
 20
958.0
 30
0.0
 11
524.5
 21
956.0
 31
0.0
  0
LINE
  5
16D
330
1E
100
AcDbEntity
  8
1
  6
Continuous
 62
     7
100
AcDbLine
 10
524.5
 20
956.0
 30
0.0
 11
525.25
 21
956.0
 31
0.0
  0
LINE
  5
16E
330
1E
100
AcDbEntity
  8
1
  6
Continuous
 62
     7
100
AcDbLine
 10
534.75
 20
958.0
 30
0.0
 11
535.5
 21
958.0
 31
0.0
  0
LINE
  5
16F
330
1E
100
AcDbEntity
  8
1
  6
Continuous
 62
     7
100
AcDbLine
 10
535.5
 20
958.0
 30
0.0
 11
535.5
 21
956.0
 31
0.0
  0
LINE
  5
170
330
1E
100
AcDbEntity
  8
1
  6
Continuous
 62
     7
100
AcDbLine
 10
535.5
 20
956.0
 30
0.0
 11
534.75
 21
956.0
 31
0.0
  0
LINE
  5
171
330
1E
100
AcDbEntity
  8
1
  6
Continuous
 62
     7
100
AcDbLine
 10
507.2499999999999
 20
950.0
 30
0.0
 11
507.2499999999999
 21
961.0
 31
0.0
  0
LINE
  5
172
330
1E
100
AcDbEntity
  8
1
  6
Continuous
 62
     7
100
AcDbLine
 10
507.2499999999999
 20
961.0
 30
0.0
 11
516.75
 21
961.0
 31
0.0
  0
LINE
  5
173
330
1E
100
AcDbEntity
  8
1
  6
Continuous
 62
     7
100
AcDbLine
 10
516.75
 20
961.0
 30
0.0
 11
516.75
 21
950.0
 31
0.0
  0
LINE
  5
174
330
1E
100
AcDbEntity
  8
1
  6
Continuous
 62
     7
100
AcDbLine
 10
507.2499999999999
 20
958.0
 30
0.0
 11
506.5
 21
958.0
 31
0.0
  0
LINE
  5
175
330
1E
100
AcDbEntity
  8
1
  6
Continuous
 62
     7
100
AcDbLine
 10
506.5
 20
958.0
 30
0.0
 11
506.5
 21
956.0
 31
0.0
  0
LINE
  5
176
330
1E
100
AcDbEntity
  8
1
  6
Continuous
 62
     7
100
AcDbLine
 10
506.5
 20
956.0
 30
0.0
 11
507.2499999999999
 21
956.0
 31
0.0
  0
LINE
  5
177
330
1E
100
AcDbEntity
  8
1
  6
Continuous
 62
     7
100
AcDbLine
 10
516.75
 20
958.0
 30
0.0
 11
517.4999999999999
 21
958.0
 31
0.0
  0
LINE
  5
178
330
1E
100
AcDbEntity
  8
1
  6
Continuous
 62
     7
100
AcDbLine
 10
517.4999999999999
 20
958.0
 30
0.0
 11
517.4999999999999
 21
956.0
 31
0.0
  0
LINE
  5
179
330
1E
100
AcDbEntity
  8
1
  6
Continuous
 62
     7
100
AcDbLine
 10
517.4999999999999
 20
956.0
 30
0.0
 11
516.75
 21
956.0
 31
0.0
  0
LINE
  5
17A
330
1E
100
AcDbEntity
  8
1
  6
Continuous
 62
     7
100
AcDbLine
 10
489.25
 20
950.0
 30
0.0
 11
489.25
 21
961.0
 31
0.0
  0
LINE
  5
17B
330
1E
100
AcDbEntity
  8
1
  6
Continuous
 62
     7
100
AcDbLine
 10
489.25
 20
961.0
 30
0.0
 11
498.7499999999999
 21
961.0
 31
0.0
  0
LINE
  5
17C
330
1E
100
AcDbEntity
  8
1
  6
Continuous
 62
     7
100
AcDbLine
 10
498.7499999999999
 20
961.0
 30
0.0
 11
498.7499999999999
 21
950.0
 31
0.0
  0
LINE
  5
17D
330
1E
100
AcDbEntity
  8
1
  6
Continuous
 62
     7
100
AcDbLine
 10
489.25
 20
958.0
 30
0.0
 11
488.4999999999999
 21
958.0
 31
0.0
  0
LINE
  5
17E
330
1E
100
AcDbEntity
  8
1
  6
Continuous
 62
     7
100
AcDbLine
 10
488.4999999999999
 20
958.0
 30
0.0
 11
488.4999999999999
 21
956.0
 31
0.0
  0
LINE
  5
17F
330
1E
100
AcDbEntity
  8
1
  6
Continuous
 62
     7
100
AcDbLine
 10
488.4999999999999
 20
956.0
 30
0.0
 11
489.25
 21
956.0
 31
0.0
  0
LINE
  5
180
330
1E
100
AcDbEntity
  8
1
  6
Continuous
 62
     7
100
AcDbLine
 10
498.7499999999999
 20
958.0
 30
0.0
 11
499.5
 21
958.0
 31
0.0
  0
LINE
  5
181
330
1E
100
AcDbEntity
  8
1
  6
Continuous
 62
     7
100
AcDbLine
 10
499.5
 20
958.0
 30
0.0
 11
499.5
 21
956.0
 31
0.0
  0
LINE
  5
182
330
1E
100
AcDbEntity
  8
1
  6
Continuous
 62
     7
100
AcDbLine
 10
499.5
 20
956.0
 30
0.0
 11
498.7499999999999
 21
956.0
 31
0.0
  0
LINE
  5
183
330
1E
100
AcDbEntity
  8
1
  6
Continuous
 62
     7
100
AcDbLine
 10
426.4999999999999
 20
950.0
 30
0.0
 11
426.4999999999999
 21
953.5
 31
0.0
  0
LINE
  5
184
330
1E
100
AcDbEntity
  8
1
  6
Continuous
 62
     7
100
AcDbLine
 10
426.4999999999999
 20
953.5
 30
0.0
 11
479.0
 21
953.5
 31
0.0
  0
LINE
  5
185
330
1E
100
AcDbEntity
  8
1
  6
Continuous
 62
     7
100
AcDbLine
 10
479.0
 20
953.5
 30
0.0
 11
479.0
 21
950.0
 31
0.0
  0
LINE
  5
186
330
1E
100
AcDbEntity
  8
1
  6
Continuous
 62
     7
100
AcDbLine
 10
429.0
 20
950.0
 30
0.0
 11
429.0
 21
953.5
 31
0.0
  0
LINE
  5
187
330
1E
100
AcDbEntity
  8
1
  6
Continuous
 62
     7
100
AcDbLine
 10
434.0
 20
950.0
 30
0.0
 11
434.0
 21
953.5
 31
0.0
  0
LINE
  5
188
330
1E
100
AcDbEntity
  8
1
  6
Continuous
 62
     7
100
AcDbLine
 10
439.0
 20
950.0
 30
0.0
 11
439.0
 21
953.5
 31
0.0
  0
LINE
  5
189
330
1E
100
AcDbEntity
  8
1
  6
Continuous
 62
     7
100
AcDbLine
 10
444.0
 20
950.0
 30
0.0
 11
444.0
 21
953.5
 31
0.0
  0
LINE
  5
18A
330
1E
100
AcDbEntity
  8
1
  6
Continuous
 62
     7
100
AcDbLine
 10
449.0
 20
950.0
 30
0.0
 11
449.0
 21
953.5
 31
0.0
  0
LINE
  5
18B
330
1E
100
AcDbEntity
  8
1
  6
Continuous
 62
     7
100
AcDbLine
 10
454.0
 20
950.0
 30
0.0
 11
454.0
 21
953.5
 31
0.0
  0
LINE
  5
18C
330
1E
100
AcDbEntity
  8
1
  6
Continuous
 62
     7
100
AcDbLine
 10
459.0
 20
950.0
 30
0.0
 11
459.0
 21
953.5
 31
0.0
  0
LINE
  5
18D
330
1E
100
AcDbEntity
  8
1
  6
Continuous
 62
     7
100
AcDbLine
 10
464.0
 20
950.0
 30
0.0
 11
464.0
 21
953.5
 31
0.0
  0
LINE
  5
18E
330
1E
100
AcDbEntity
  8
1
  6
Continuous
 62
     7
100
AcDbLine
 10
469.0
 20
950.0
 30
0.0
 11
469.0
 21
953.5
 31
0.0
  0
LINE
  5
18F
330
1E
100
AcDbEntity
  8
1
  6
Continuous
 62
     7
100
AcDbLine
 10
474.0
 20
950.0
 30
0.0
 11
474.0
 21
953.5
 31
0.0
  0
LINE
  5
190
330
1E
100
AcDbEntity
  8
1
  6
Continuous
 62
     7
100
AcDbLine
 10
227.4999999999999
 20
950.0
 30
0.0
 11
227.4999999999999
 21
953.5
 31
0.0
  0
ARC
  5
191
330
1E
100
AcDbEntity
  8
1
  6
Continuous
 62
     7
100
AcDbCircle
 10
228.5
 20
953.5
 30
0.0
 40
1.0
100
AcDbArc
 50
90.0
 51
180.0
  0
LINE
  5
192
330
1E
100
AcDbEntity
  8
1
  6
Continuous
 62
     7
100
AcDbLine
 10
228.5
 20
954.4999999999999
 30
0.0
 11
256.4999999999999
 21
954.4999999999999
 31
0.0
  0
LINE
  5
193
330
1E
100
AcDbEntity
  8
1
  6
Continuous
 62
     7
100
AcDbLine
 10
257.5
 20
953.5
 30
0.0
 11
257.5
 21
950.0
 31
0.0
  0
ARC
  5
194
330
1E
100
AcDbEntity
  8
1
  6
Continuous
 62
     7
100
AcDbCircle
 10
256.4999999999999
 20
953.5
 30
0.0
 40
1.0
100
AcDbArc
 50
0.0
 51
90.0
  0
LINE
  5
195
330
1E
100
AcDbEntity
  8
1
  6
Continuous
 62
     7
100
AcDbLine
 10
256.4999999999999
 20
955.0
 30
0.0
 11
256.4999999999999
 21
954.4999999999999
 31
0.0
  0
ARC
  5
196
330
1E
100
AcDbEntity
  8
1
  6
Continuous
 62
     7
100
AcDbCircle
 10
255.5
 20
955.0
 30
0.0
 40
1.0
100
AcDbArc
 50
0.0
 51
90.0
  0
LINE
  5
197
330
1E
100
AcDbEntity
  8
1
  6
Continuous
 62
     7
100
AcDbLine
 10
229.4999999999999
 20
956.0
 30
0.0
 11
255.5
 21
956.0
 31
0.0
  0
LINE
  5
198
330
1E
100
AcDbEntity
  8
1
  6
Continuous
 62
     7
100
AcDbLine
 10
228.5
 20
954.4999999999999
 30
0.0
 11
228.5
 21
955.0
 31
0.0
  0
ARC
  5
199
330
1E
100
AcDbEntity
  8
1
  6
Continuous
 62
     7
100
AcDbCircle
 10
229.4999999999999
 20
955.0
 30
0.0
 40
1.0
100
AcDbArc
 50
90.0
 51
180.0
  0
CIRCLE
  5
19A
330
1E
100
AcDbEntity
  8
1
  6
Continuous
 62
     7
100
AcDbCircle
 10
199.0
 20
944.5
 30
0.0
 40
2.75
  0
LINE
  5
19B
330
1E
100
AcDbEntity
  8
1
  6
Continuous
 62
     7
100
AcDbLine
 10
197.25
 20
944.5
 30
0.0
 11
200.7499999999999
 21
944.5
 31
0.0
  0
LINE
  5
19C
330
1E
100
AcDbEntity
  8
1
  6
Continuous
 62
     7
100
AcDbLine
 10
199.0
 20
946.25
 30
0.0
 11
199.0
 21
942.75
 31
0.0
  0
CIRCLE
  5
19D
330
1E
100
AcDbEntity
  8
1
  6
Continuous
 62
     7
100
AcDbCircle
 10
333.0
 20
944.5
 30
0.0
 40
2.75
  0
LINE
  5
19E
330
1E
100
AcDbEntity
  8
1
  6
Continuous
 62
     7
100
AcDbLine
 10
331.25
 20
944.5
 30
0.0
 11
334.75
 21
944.5
 31
0.0
  0
LINE
  5
19F
330
1E
100
AcDbEntity
  8
1
  6
Continuous
 62
     7
100
AcDbLine
 10
333.0
 20
946.25
 30
0.0
 11
333.0
 21
942.75
 31
0.0
  0
CIRCLE
  5
1A0
330
1E
100
AcDbEntity
  8
1
  6
Continuous
 62
     7
100
AcDbCircle
 10
467.0
 20
944.5
 30
0.0
 40
2.75
  0
LINE
  5
1A1
330
1E
100
AcDbEntity
  8
1
  6
Continuous
 62
     7
100
AcDbLine
 10
465.2499999999999
 20
944.5
 30
0.0
 11
468.75
 21
944.5
 31
0.0
  0
LINE
  5
1A2
330
1E
100
AcDbEntity
  8
1
  6
Continuous
 62
     7
100
AcDbLine
 10
467.0
 20
946.25
 30
0.0
 11
467.0
 21
942.75
 31
0.0
  0
CIRCLE
  5
1A3
330
1E
100
AcDbEntity
  8
1
  6
Continuous
 62
     7
100
AcDbCircle
 10
601.0
 20
944.5
 30
0.0
 40
2.75
  0
LINE
  5
1A4
330
1E
100
AcDbEntity
  8
1
  6
Continuous
 62
     7
100
AcDbLine
 10
599.2499999999999
 20
944.5
 30
0.0
 11
602.7499999999999
 21
944.5
 31
0.0
  0
LINE
  5
1A5
330
1E
100
AcDbEntity
  8
1
  6
Continuous
 62
     7
100
AcDbLine
 10
601.0
 20
946.25
 30
0.0
 11
601.0
 21
942.75
 31
0.0
  0
LINE
  5
1A6
330
1E
100
AcDbEntity
  8
1
  6
Continuous
 62
     7
100
AcDbLine
 10
205.0
 20
950.0
 30
0.0
 11
205.0
 21
952.0
 31
0.0
  0
LINE
  5
1A7
330
1E
100
AcDbEntity
  8
1
  6
Continuous
 62
     7
100
AcDbLine
 10
205.0
 20
952.0
 30
0.0
 11
220.0
 21
952.0
 31
0.0
  0
LINE
  5
1A8
330
1E
100
AcDbEntity
  8
1
  6
Continuous
 62
     7
100
AcDbLine
 10
220.0
 20
952.0
 30
0.0
 11
220.0
 21
950.0
 31
0.0
  0
LINE
  5
1A9
330
1E
100
AcDbEntity
  8
1
  6
Continuous
 62
     7
100
AcDbLine
 10
207.5
 20
952.0
 30
0.0
 11
207.5
 21
955.0
 31
0.0
  0
LINE
  5
1AA
330
1E
100
AcDbEntity
  8
1
  6
Continuous
 62
     7
100
AcDbLine
 10
207.5
 20
955.0
 30
0.0
 11
217.5
 21
955.0
 31
0.0
  0
LINE
  5
1AB
330
1E
100
AcDbEntity
  8
1
  6
Continuous
 62
     7
100
AcDbLine
 10
217.5
 20
955.0
 30
0.0
 11
217.5
 21
952.0
 31
0.0
  0
LINE
  5
1AC
330
1E
100
AcDbEntity
  8
1
  6
Continuous
 62
     7
100
AcDbLine
 10
806.0
 20
950.0
 30
0.0
 11
806.0
 21
655.0
 31
0.0
  0
LINE
  5
1AD
330
1E
100
AcDbEntity
  8
1
  6
Continuous
 62
     7
100
AcDbLine
 10
806.0
 20
655.0
 30
0.0
 11
850.0
 21
655.0
 31
0.0
  0
LINE
  5
1AE
330
1E
100
AcDbEntity
  8
1
  6
Continuous
 62
     7
100
AcDbLine
 10
850.0
 20
655.0
 30
0.0
 11
850.0
 21
950.0
 31
0.0
  0
LINE
  5
1AF
330
1E
100
AcDbEntity
  8
1
  6
Continuous
 62
     7
100
AcDbLine
 10
850.0
 20
950.0
 30
0.0
 11
806.0
 21
950.0
 31
0.0
  0
LINE
  5
1B0
330
1E
100
AcDbEntity
  8
1
  6
Continuous
 62
     7
100
AcDbLine
 10
806.0
 20
655.0
 30
0.0
 11
806.0
 21
653.0
 31
0.0
  0
LINE
  5
1B1
330
1E
100
AcDbEntity
  8
1
  6
Continuous
 62
     7
100
AcDbLine
 10
806.0
 20
653.0
 30
0.0
 11
809.0
 21
650.0
 31
0.0
  0
LINE
  5
1B2
330
1E
100
AcDbEntity
  8
1
  6
Continuous
 62
     7
100
AcDbLine
 10
809.0
 20
650.0
 30
0.0
 11
847.0
 21
650.0
 31
0.0
  0
LINE
  5
1B3
330
1E
100
AcDbEntity
  8
1
  6
Continuous
 62
     7
100
AcDbLine
 10
847.0
 20
650.0
 30
0.0
 11
850.0
 21
653.0
 31
0.0
  0
LINE
  5
1B4
330
1E
100
AcDbEntity
  8
1
  6
Continuous
 62
     7
100
AcDbLine
 10
850.0
 20
653.0
 30
0.0
 11
850.0
 21
655.0
 31
0.0
  0
LINE
  5
1B5
330
1E
100
AcDbEntity
  8
1
  6
Continuous
 62
     7
100
AcDbLine
 10
811.0
 20
650.0
 30
0.0
 11
811.0
 21
650.4999999999999
 31
0.0
  0
LINE
  5
1B6
330
1E
100
AcDbEntity
  8
1
  6
Continuous
 62
     7
100
AcDbLine
 10
811.0
 20
650.4999999999999
 30
0.0
 11
845.0
 21
650.4999999999999
 31
0.0
  0
LINE
  5
1B7
330
1E
100
AcDbEntity
  8
1
  6
Continuous
 62
     7
100
AcDbLine
 10
845.0
 20
650.4999999999999
 30
0.0
 11
845.0
 21
650.0
 31
0.0
  0
LINE
  5
1B8
330
1E
100
AcDbEntity
  8
1
  6
Continuous
 62
     7
100
AcDbLine
 10
832.0
 20
650.0
 30
0.0
 11
832.0
 21
649.5
 31
0.0
  0
LINE
  5
1B9
330
1E
100
AcDbEntity
  8
1
  6
Continuous
 62
     7
100
AcDbLine
 10
839.0
 20
649.5
 30
0.0
 11
839.0
 21
650.0
 31
0.0
  0
ARC
  5
1BA
330
1E
100
AcDbEntity
  8
1
  6
Continuous
 62
     7
100
AcDbCircle
 10
835.5
 20
655.125
 30
0.0
 40
6.625
100
AcDbArc
 50
238.109208
 51
301.8907919999999
  0
LINE
  5
1BB
330
1E
100
AcDbEntity
  8
1
  6
Continuous
 62
     7
100
AcDbLine
 10
826.0
 20
655.0
 30
0.0
 11
826.0
 21
950.0
 31
0.0
  0
CIRCLE
  5
1BC
330
1E
100
AcDbEntity
  8
1
  6
Continuous
 62
     7
100
AcDbCircle
 10
820.0
 20
925.0
 30
0.0
 40
2.75
  0
LINE
  5
1BD
330
1E
100
AcDbEntity
  8
1
  6
Continuous
 62
     7
100
AcDbLine
 10
818.25
 20
925.0
 30
0.0
 11
821.7499999999999
 21
925.0
 31
0.0
  0
LINE
  5
1BE
330
1E
100
AcDbEntity
  8
1
  6
Continuous
 62
     7
100
AcDbLine
 10
820.0
 20
926.75
 30
0.0
 11
820.0
 21
923.2499999999999
 31
0.0
  0
CIRCLE
  5
1BF
330
1E
100
AcDbEntity
  8
1
  6
Continuous
 62
     7
100
AcDbCircle
 10
820.0
 20
680.0
 30
0.0
 40
2.75
  0
LINE
  5
1C0
330
1E
100
AcDbEntity
  8
1
  6
Continuous
 62
     7
100
AcDbLine
 10
818.25
 20
680.0
 30
0.0
 11
821.7499999999999
 21
680.0
 31
0.0
  0
LINE
  5
1C1
330
1E
100
AcDbEntity
  8
1
  6
Continuous
 62
     7
100
AcDbLine
 10
820.0
 20
681.7499999999999
 30
0.0
 11
820.0
 21
678.2499999999999
 31
0.0
  0
ARC
  5
1C2
330
1E
100
AcDbEntity
  8
1
  6
Continuous
 62
     7
100
AcDbCircle
 10
831.75
 20
706.25
 30
0.0
 40
1.25
100
AcDbArc
 50
90.0
 51
270.0
  0
ARC
  5
1C3
330
1E
100
AcDbEntity
  8
1
  6
Continuous
 62
     7
100
AcDbCircle
 10
844.25
 20
706.25
 30
0.0
 40
1.25
100
AcDbArc
 50
270.0
 51
90.0
  0
LINE
  5
1C4
330
1E
100
AcDbEntity
  8
1
  6
Continuous
 62
     7
100
AcDbLine
 10
831.75
 20
707.5
 30
0.0
 11
844.25
 21
707.5
 31
0.0
  0
LINE
  5
1C5
330
1E
100
AcDbEntity
  8
1
  6
Continuous
 62
     7
100
AcDbLine
 10
831.75
 20
705.0
 30
0.0
 11
844.25
 21
705.0
 31
0.0
  0
ARC
  5
1C6
330
1E
100
AcDbEntity
  8
1
  6
Continuous
 62
     7
100
AcDbCircle
 10
831.75
 20
713.75
 30
0.0
 40
1.25
100
AcDbArc
 50
90.0
 51
270.0
  0
ARC
  5
1C7
330
1E
100
AcDbEntity
  8
1
  6
Continuous
 62
     7
100
AcDbCircle
 10
844.25
 20
713.75
 30
0.0
 40
1.25
100
AcDbArc
 50
270.0
 51
90.0
  0
LINE
  5
1C8
330
1E
100
AcDbEntity
  8
1
  6
Continuous
 62
     7
100
AcDbLine
 10
831.75
 20
715.0
 30
0.0
 11
844.25
 21
715.0
 31
0.0
  0
LINE
  5
1C9
330
1E
100
AcDbEntity
  8
1
  6
Continuous
 62
     7
100
AcDbLine
 10
831.75
 20
712.5
 30
0.0
 11
844.25
 21
712.5
 31
0.0
  0
ARC
  5
1CA
330
1E
100
AcDbEntity
  8
1
  6
Continuous
 62
     7
100
AcDbCircle
 10
831.75
 20
721.25
 30
0.0
 40
1.25
100
AcDbArc
 50
90.0
 51
270.0
  0
ARC
  5
1CB
330
1E
100
AcDbEntity
  8
1
  6
Continuous
 62
     7
100
AcDbCircle
 10
844.25
 20
721.25
 30
0.0
 40
1.25
100
AcDbArc
 50
270.0
 51
90.0
  0
LINE
  5
1CC
330
1E
100
AcDbEntity
  8
1
  6
Continuous
 62
     7
100
AcDbLine
 10
831.75
 20
722.5
 30
0.0
 11
844.25
 21
722.5
 31
0.0
  0
LINE
  5
1CD
330
1E
100
AcDbEntity
  8
1
  6
Continuous
 62
     7
100
AcDbLine
 10
831.75
 20
720.0
 30
0.0
 11
844.25
 21
720.0
 31
0.0
  0
ARC
  5
1CE
330
1E
100
AcDbEntity
  8
1
  6
Continuous
 62
     7
100
AcDbCircle
 10
831.75
 20
728.75
 30
0.0
 40
1.25
100
AcDbArc
 50
90.0
 51
270.0
  0
ARC
  5
1CF
330
1E
100
AcDbEntity
  8
1
  6
Continuous
 62
     7
100
AcDbCircle
 10
844.25
 20
728.75
 30
0.0
 40
1.25
100
AcDbArc
 50
270.0
 51
90.0
  0
LINE
  5
1D0
330
1E
100
AcDbEntity
  8
1
  6
Continuous
 62
     7
100
AcDbLine
 10
831.75
 20
730.0
 30
0.0
 11
844.25
 21
730.0
 31
0.0
  0
LINE
  5
1D1
330
1E
100
AcDbEntity
  8
1
  6
Continuous
 62
     7
100
AcDbLine
 10
831.75
 20
727.5
 30
0.0
 11
844.25
 21
727.5
 31
0.0
  0
ARC
  5
1D2
330
1E
100
AcDbEntity
  8
1
  6
Continuous
 62
     7
100
AcDbCircle
 10
831.75
 20
736.2499999999999
 30
0.0
 40
1.25
100
AcDbArc
 50
90.0
 51
270.0
  0
ARC
  5
1D3
330
1E
100
AcDbEntity
  8
1
  6
Continuous
 62
     7
100
AcDbCircle
 10
844.25
 20
736.2499999999999
 30
0.0
 40
1.25
100
AcDbArc
 50
270.0
 51
90.0
  0
LINE
  5
1D4
330
1E
100
AcDbEntity
  8
1
  6
Continuous
 62
     7
100
AcDbLine
 10
831.75
 20
737.5
 30
0.0
 11
844.25
 21
737.5
 31
0.0
  0
LINE
  5
1D5
330
1E
100
AcDbEntity
  8
1
  6
Continuous
 62
     7
100
AcDbLine
 10
831.75
 20
735.0
 30
0.0
 11
844.25
 21
735.0
 31
0.0
  0
ARC
  5
1D6
330
1E
100
AcDbEntity
  8
1
  6
Continuous
 62
     7
100
AcDbCircle
 10
831.75
 20
743.75
 30
0.0
 40
1.25
100
AcDbArc
 50
90.0
 51
270.0
  0
ARC
  5
1D7
330
1E
100
AcDbEntity
  8
1
  6
Continuous
 62
     7
100
AcDbCircle
 10
844.25
 20
743.75
 30
0.0
 40
1.25
100
AcDbArc
 50
270.0
 51
90.0
  0
LINE
  5
1D8
330
1E
100
AcDbEntity
  8
1
  6
Continuous
 62
     7
100
AcDbLine
 10
831.75
 20
745.0
 30
0.0
 11
844.25
 21
745.0
 31
0.0
  0
LINE
  5
1D9
330
1E
100
AcDbEntity
  8
1
  6
Continuous
 62
     7
100
AcDbLine
 10
831.75
 20
742.4999999999999
 30
0.0
 11
844.25
 21
742.4999999999999
 31
0.0
  0
ARC
  5
1DA
330
1E
100
AcDbEntity
  8
1
  6
Continuous
 62
     7
100
AcDbCircle
 10
831.75
 20
751.25
 30
0.0
 40
1.25
100
AcDbArc
 50
90.0
 51
270.0
  0
ARC
  5
1DB
330
1E
100
AcDbEntity
  8
1
  6
Continuous
 62
     7
100
AcDbCircle
 10
844.25
 20
751.25
 30
0.0
 40
1.25
100
AcDbArc
 50
270.0
 51
90.0
  0
LINE
  5
1DC
330
1E
100
AcDbEntity
  8
1
  6
Continuous
 62
     7
100
AcDbLine
 10
831.75
 20
752.5
 30
0.0
 11
844.25
 21
752.5
 31
0.0
  0
LINE
  5
1DD
330
1E
100
AcDbEntity
  8
1
  6
Continuous
 62
     7
100
AcDbLine
 10
831.75
 20
750.0
 30
0.0
 11
844.25
 21
750.0
 31
0.0
  0
ARC
  5
1DE
330
1E
100
AcDbEntity
  8
1
  6
Continuous
 62
     7
100
AcDbCircle
 10
831.75
 20
758.75
 30
0.0
 40
1.25
100
AcDbArc
 50
90.0
 51
270.0
  0
ARC
  5
1DF
330
1E
100
AcDbEntity
  8
1
  6
Continuous
 62
     7
100
AcDbCircle
 10
844.25
 20
758.75
 30
0.0
 40
1.25
100
AcDbArc
 50
270.0
 51
90.0
  0
LINE
  5
1E0
330
1E
100
AcDbEntity
  8
1
  6
Continuous
 62
     7
100
AcDbLine
 10
831.75
 20
760.0
 30
0.0
 11
844.25
 21
760.0
 31
0.0
  0
LINE
  5
1E1
330
1E
100
AcDbEntity
  8
1
  6
Continuous
 62
     7
100
AcDbLine
 10
831.75
 20
757.5
 30
0.0
 11
844.25
 21
757.5
 31
0.0
  0
ARC
  5
1E2
330
1E
100
AcDbEntity
  8
1
  6
Continuous
 62
     7
100
AcDbCircle
 10
831.75
 20
766.25
 30
0.0
 40
1.25
100
AcDbArc
 50
90.0
 51
270.0
  0
ARC
  5
1E3
330
1E
100
AcDbEntity
  8
1
  6
Continuous
 62
     7
100
AcDbCircle
 10
844.25
 20
766.25
 30
0.0
 40
1.25
100
AcDbArc
 50
270.0
 51
90.0
  0
LINE
  5
1E4
330
1E
100
AcDbEntity
  8
1
  6
Continuous
 62
     7
100
AcDbLine
 10
831.75
 20
767.4999999999999
 30
0.0
 11
844.25
 21
767.4999999999999
 31
0.0
  0
LINE
  5
1E5
330
1E
100
AcDbEntity
  8
1
  6
Continuous
 62
     7
100
AcDbLine
 10
831.75
 20
765.0
 30
0.0
 11
844.25
 21
765.0
 31
0.0
  0
ARC
  5
1E6
330
1E
100
AcDbEntity
  8
1
  6
Continuous
 62
     7
100
AcDbCircle
 10
831.75
 20
773.7499999999999
 30
0.0
 40
1.25
100
AcDbArc
 50
90.0
 51
270.0
  0
ARC
  5
1E7
330
1E
100
AcDbEntity
  8
1
  6
Continuous
 62
     7
100
AcDbCircle
 10
844.25
 20
773.7499999999999
 30
0.0
 40
1.25
100
AcDbArc
 50
270.0
 51
90.0
  0
LINE
  5
1E8
330
1E
100
AcDbEntity
  8
1
  6
Continuous
 62
     7
100
AcDbLine
 10
831.75
 20
775.0
 30
0.0
 11
844.25
 21
775.0
 31
0.0
  0
LINE
  5
1E9
330
1E
100
AcDbEntity
  8
1
  6
Continuous
 62
     7
100
AcDbLine
 10
831.75
 20
772.5
 30
0.0
 11
844.25
 21
772.5
 31
0.0
  0
ARC
  5
1EA
330
1E
100
AcDbEntity
  8
1
  6
Continuous
 62
     7
100
AcDbCircle
 10
831.75
 20
781.25
 30
0.0
 40
1.25
100
AcDbArc
 50
90.0
 51
270.0
  0
ARC
  5
1EB
330
1E
100
AcDbEntity
  8
1
  6
Continuous
 62
     7
100
AcDbCircle
 10
844.25
 20
781.25
 30
0.0
 40
1.25
100
AcDbArc
 50
270.0
 51
90.0
  0
LINE
  5
1EC
330
1E
100
AcDbEntity
  8
1
  6
Continuous
 62
     7
100
AcDbLine
 10
831.75
 20
782.5
 30
0.0
 11
844.25
 21
782.5
 31
0.0
  0
LINE
  5
1ED
330
1E
100
AcDbEntity
  8
1
  6
Continuous
 62
     7
100
AcDbLine
 10
831.75
 20
780.0
 30
0.0
 11
844.25
 21
780.0
 31
0.0
  0
ARC
  5
1EE
330
1E
100
AcDbEntity
  8
1
  6
Continuous
 62
     7
100
AcDbCircle
 10
831.75
 20
788.75
 30
0.0
 40
1.25
100
AcDbArc
 50
90.0
 51
270.0
  0
ARC
  5
1EF
330
1E
100
AcDbEntity
  8
1
  6
Continuous
 62
     7
100
AcDbCircle
 10
844.25
 20
788.75
 30
0.0
 40
1.25
100
AcDbArc
 50
270.0
 51
90.0
  0
LINE
  5
1F0
330
1E
100
AcDbEntity
  8
1
  6
Continuous
 62
     7
100
AcDbLine
 10
831.75
 20
790.0
 30
0.0
 11
844.25
 21
790.0
 31
0.0
  0
LINE
  5
1F1
330
1E
100
AcDbEntity
  8
1
  6
Continuous
 62
     7
100
AcDbLine
 10
831.75
 20
787.5
 30
0.0
 11
844.25
 21
787.5
 31
0.0
  0
ARC
  5
1F2
330
1E
100
AcDbEntity
  8
1
  6
Continuous
 62
     7
100
AcDbCircle
 10
831.75
 20
796.25
 30
0.0
 40
1.25
100
AcDbArc
 50
90.0
 51
270.0
  0
ARC
  5
1F3
330
1E
100
AcDbEntity
  8
1
  6
Continuous
 62
     7
100
AcDbCircle
 10
844.25
 20
796.25
 30
0.0
 40
1.25
100
AcDbArc
 50
270.0
 51
90.0
  0
LINE
  5
1F4
330
1E
100
AcDbEntity
  8
1
  6
Continuous
 62
     7
100
AcDbLine
 10
831.75
 20
797.5
 30
0.0
 11
844.25
 21
797.5
 31
0.0
  0
LINE
  5
1F5
330
1E
100
AcDbEntity
  8
1
  6
Continuous
 62
     7
100
AcDbLine
 10
831.75
 20
795.0
 30
0.0
 11
844.25
 21
795.0
 31
0.0
  0
LINE
  5
1F6
330
1E
100
AcDbEntity
  8
1
  6
Continuous
 62
     7
100
AcDbLine
 10
850.0
 20
899.0
 30
0.0
 11
856.0
 21
899.0
 31
0.0
  0
LINE
  5
1F7
330
1E
100
AcDbEntity
  8
1
  6
Continuous
 62
     7
100
AcDbLine
 10
856.0
 20
899.0
 30
0.0
 11
856.0
 21
919.0
 31
0.0
  0
LINE
  5
1F8
330
1E
100
AcDbEntity
  8
1
  6
Continuous
 62
     7
100
AcDbLine
 10
856.0
 20
919.0
 30
0.0
 11
850.0
 21
919.0
 31
0.0
  0
LINE
  5
1F9
330
1E
100
AcDbEntity
  8
1
  6
Continuous
 62
     7
100
AcDbLine
 10
850.0
 20
681.0
 30
0.0
 11
856.0
 21
681.0
 31
0.0
  0
LINE
  5
1FA
330
1E
100
AcDbEntity
  8
1
  6
Continuous
 62
     7
100
AcDbLine
 10
856.0
 20
681.0
 30
0.0
 11
856.0
 21
701.0
 31
0.0
  0
LINE
  5
1FB
330
1E
100
AcDbEntity
  8
1
  6
Continuous
 62
     7
100
AcDbLine
 10
856.0
 20
701.0
 30
0.0
 11
850.0
 21
701.0
 31
0.0
  0
ARC
  5
1FC
330
1E
100
AcDbEntity
  8
1
  6
Continuous
 62
     7
100
AcDbCircle
 10
575.2129119999999
 20
950.4374999999999
 30
0.0
 40
2.5625
100
AcDbArc
 50
12.680383
 51
167.3196169999999
  0
LINE
  5
1FD
330
1E
100
AcDbEntity
  8
1
  6
Continuous
 62
     7
100
AcDbLine
 10
572.7129119999999
 20
951.0
 30
0.0
 11
572.7129119999999
 21
950.0
 31
0.0
  0
LINE
  5
1FE
330
1E
100
AcDbEntity
  8
1
  6
Continuous
 62
     7
100
AcDbLine
 10
577.7129119999999
 20
951.0
 30
0.0
 11
577.7129119999999
 21
950.0
 31
0.0
  0
ARC
  5
1FF
330
1E
100
AcDbEntity
  8
1
  6
Continuous
 62
     7
100
AcDbCircle
 10
539.0
 20
950.4374999999999
 30
0.0
 40
2.5625
100
AcDbArc
 50
12.680383
 51
167.3196169999999
  0
LINE
  5
200
330
1E
100
AcDbEntity
  8
1
  6
Continuous
 62
     7
100
AcDbLine
 10
536.5
 20
951.0
 30
0.0
 11
536.5
 21
950.0
 31
0.0
  0
LINE
  5
201
330
1E
100
AcDbEntity
  8
1
  6
Continuous
 62
     7
100
AcDbLine
 10
541.5
 20
951.0
 30
0.0
 11
541.5
 21
950.0
 31
0.0
  0
ARC
  5
202
330
1E
100
AcDbEntity
  8
1
  6
Continuous
 62
     7
100
AcDbCircle
 10
503.0
 20
950.4374999999999
 30
0.0
 40
2.5625
100
AcDbArc
 50
12.680383
 51
167.3196169999999
  0
LINE
  5
203
330
1E
100
AcDbEntity
  8
1
  6
Continuous
 62
     7
100
AcDbLine
 10
500.4999999999999
 20
951.0
 30
0.0
 11
500.4999999999999
 21
950.0
 31
0.0
  0
LINE
  5
204
330
1E
100
AcDbEntity
  8
1
  6
Continuous
 62
     7
100
AcDbLine
 10
505.4999999999999
 20
951.0
 30
0.0
 11
505.4999999999999
 21
950.0
 31
0.0
  0
ARC
  5
205
330
1E
100
AcDbEntity
  8
1
  6
Continuous
 62
     7
100
AcDbCircle
 10
826.5
 20
950.4374999999999
 30
0.0
 40
2.5625
100
AcDbArc
 50
12.680383
 51
167.3196169999999
  0
LINE
  5
206
330
1E
100
AcDbEntity
  8
1
  6
Continuous
 62
     7
100
AcDbLine
 10
824.0
 20
951.0
 30
0.0
 11
824.0
 21
950.0
 31
0.0
  0
LINE
  5
207
330
1E
100
AcDbEntity
  8
1
  6
Continuous
 62
     7
100
AcDbLine
 10
829.0
 20
951.0
 30
0.0
 11
829.0
 21
950.0
 31
0.0
  0
LINE
  5
208
330
1E
100
AcDbEntity
  8
1
  6
Continuous
 62
     7
100
AcDbLine
 10
829.25
 20
950.0
 30
0.0
 11
829.25
 21
961.0
 31
0.0
  0
LINE
  5
209
330
1E
100
AcDbEntity
  8
1
  6
Continuous
 62
     7
100
AcDbLine
 10
829.25
 20
961.0
 30
0.0
 11
838.7499999999999
 21
961.0
 31
0.0
  0
LINE
  5
20A
330
1E
100
AcDbEntity
  8
1
  6
Continuous
 62
     7
100
AcDbLine
 10
838.7499999999999
 20
961.0
 30
0.0
 11
838.7499999999999
 21
950.0
 31
0.0
  0
LINE
  5
20B
330
1E
100
AcDbEntity
  8
1
  6
Continuous
 62
     7
100
AcDbLine
 10
814.25
 20
950.0
 30
0.0
 11
814.25
 21
961.0
 31
0.0
  0
LINE
  5
20C
330
1E
100
AcDbEntity
  8
1
  6
Continuous
 62
     7
100
AcDbLine
 10
814.25
 20
961.0
 30
0.0
 11
823.75
 21
961.0
 31
0.0
  0
LINE
  5
20D
330
1E
100
AcDbEntity
  8
1
  6
Continuous
 62
     7
100
AcDbLine
 10
823.75
 20
961.0
 30
0.0
 11
823.75
 21
950.0
 31
0.0
  0
CIRCLE
  5
20E
330
1E
100
AcDbEntity
  8
1
  6
Continuous
 62
     7
100
AcDbCircle
 10
819.0
 20
957.0
 30
0.0
 40
1.0
  0
CIRCLE
  5
20F
330
1E
100
AcDbEntity
  8
1
  6
Continuous
 62
     7
100
AcDbCircle
 10
834.0
 20
957.0
 30
0.0
 40
1.0
  0
LINE
  5
210
330
1E
100
AcDbEntity
  8
1
  6
Continuous
 62
     7
100
AcDbLine
 10
838.7499999999999
 20
953.5
 30
0.0
 11
843.0
 21
953.5
 31
0.0
  0
LINE
  5
211
330
1E
100
AcDbEntity
  8
1
  6
Continuous
 62
     7
100
AcDbLine
 10
843.0
 20
953.5
 30
0.0
 11
843.0
 21
950.0
 31
0.0
  0
LINE
  5
212
330
1E
100
AcDbEntity
  8
1
  6
Continuous
 62
     7
100
AcDbLine
 10
847.4999999999999
 20
951.0
 30
0.0
 11
847.4999999999999
 21
950.0
 31
0.0
  0
LINE
  5
213
330
1E
100
AcDbEntity
  8
1
  6
Continuous
 62
     7
100
AcDbLine
 10
809.5
 20
951.0
 30
0.0
 11
809.5
 21
950.0
 31
0.0
  0
ARC
  5
214
330
1E
100
AcDbEntity
  8
1
  6
Continuous
 62
     7
100
AcDbCircle
 10
829.25
 20
950.5
 30
0.0
 40
2.5
100
AcDbArc
 50
90.0
 51
123.114143
  0
ARC
  5
215
330
1E
100
AcDbEntity
  8
1
  6
Continuous
 62
     7
100
AcDbCircle
 10
845.0
 20
950.5
 30
0.0
 40
2.549509999999999
100
AcDbArc
 50
11.309932
 51
141.671182
  0
ARC
  5
216
330
1E
100
AcDbEntity
  8
1
  6
Continuous
 62
     7
100
AcDbCircle
 10
812.0
 20
950.5
 30
0.0
 40
2.549509999999999
100
AcDbArc
 50
28.05182199999999
 51
168.6900679999999
  0
LINE
  5
217
330
1E
100
AcDbEntity
  8
1
  6
Continuous
 62
     7
100
AcDbLine
 10
845.5
 20
953.0
 30
0.0
 11
845.5
 21
953.5
 31
0.0
  0
LINE
  5
218
330
1E
100
AcDbEntity
  8
1
  6
Continuous
 62
     7
100
AcDbLine
 10
844.5
 20
954.4999999999999
 30
0.0
 11
838.7499999999999
 21
954.4999999999999
 31
0.0
  0
ARC
  5
219
330
1E
100
AcDbEntity
  8
1
  6
Continuous
 62
     7
100
AcDbCircle
 10
844.5
 20
953.5
 30
0.0
 40
1.0
100
AcDbArc
 50
0.0
 51
90.0
  0
LINE
  5
21A
330
1E
100
AcDbEntity
  8
1
  6
Continuous
 62
     7
100
AcDbLine
 10
844.5
 20
954.4999999999999
 30
0.0
 11
844.5
 21
955.0
 31
0.0
  0
LINE
  5
21B
330
1E
100
AcDbEntity
  8
1
  6
Continuous
 62
     7
100
AcDbLine
 10
843.5
 20
956.0
 30
0.0
 11
838.7499999999999
 21
956.0
 31
0.0
  0
ARC
  5
21C
330
1E
100
AcDbEntity
  8
1
  6
Continuous
 62
     7
100
AcDbCircle
 10
843.5
 20
955.0
 30
0.0
 40
1.0
100
AcDbArc
 50
0.0
 51
90.0
  0
LINE
  5
21D
330
1E
100
AcDbEntity
  8
1
  6
Continuous
 62
     7
100
AcDbLine
 10
823.75
 20
956.0
 30
0.0
 11
829.25
 21
956.0
 31
0.0
  0
LINE
  5
21E
330
1E
100
AcDbEntity
  8
1
  6
Continuous
 62
     7
100
AcDbLine
 10
823.75
 20
954.4999999999999
 30
0.0
 11
829.25
 21
954.4999999999999
 31
0.0
  0
LINE
  5
21F
330
1E
100
AcDbEntity
  8
1
  6
Continuous
 62
     7
100
AcDbLine
 10
812.5
 20
953.0
 30
0.0
 11
812.5
 21
953.5
 31
0.0
  0
LINE
  5
220
330
1E
100
AcDbEntity
  8
1
  6
Continuous
 62
     7
100
AcDbLine
 10
813.4999999999999
 20
954.4999999999999
 30
0.0
 11
814.25
 21
954.4999999999999
 31
0.0
  0
ARC
  5
221
330
1E
100
AcDbEntity
  8
1
  6
Continuous
 62
     7
100
AcDbCircle
 10
813.4999999999999
 20
953.5
 30
0.0
 40
1.0
100
AcDbArc
 50
90.0
 51
180.0
  0
ARC
  5
222
330
1E
100
AcDbEntity
  8
1
  6
Continuous
 62
     7
100
AcDbCircle
 10
814.4999999999999
 20
955.0
 30
0.0
 40
1.0
100
AcDbArc
 50
104.477512
 51
180.0
  0
LINE
  5
223
330
1E
100
AcDbEntity
  8
1
  6
Continuous
 62
     7
100
AcDbLine
 10
813.4999999999999
 20
954.4999999999999
 30
0.0
 11
813.4999999999999
 21
955.0
 31
0.0
  0
LINE
  5
224
330
1E
100
AcDbEntity
  8
1
  6
Continuous
 62
     7
100
AcDbLine
 10
183.0
 20
1126.0
 30
0.0
 11
184.0
 21
1126.0
 31
0.0
  0
LINE
  5
225
330
1E
100
AcDbEntity
  8
1
  6
Continuous
 62
     7
100
AcDbLine
 10
184.0
 20
1126.0
 30
0.0
 11
184.0
 21
1107.0
 31
0.0
  0
LINE
  5
226
330
1E
100
AcDbEntity
  8
1
  6
Continuous
 62
     7
100
AcDbLine
 10
184.0
 20
1115.0
 30
0.0
 11
185.0
 21
1115.0
 31
0.0
  0
LINE
  5
227
330
1E
100
AcDbEntity
  8
1
  6
Continuous
 62
     7
100
AcDbLine
 10
185.0
 20
1115.0
 30
0.0
 11
185.0
 21
1127.0
 31
0.0
  0
LINE
  5
228
330
1E
100
AcDbEntity
  8
1
  6
Continuous
 62
     7
100
AcDbLine
 10
185.0
 20
1127.0
 30
0.0
 11
184.0
 21
1127.0
 31
0.0
  0
LINE
  5
229
330
1E
100
AcDbEntity
  8
1
  6
Continuous
 62
     7
100
AcDbLine
 10
184.0
 20
1127.0
 30
0.0
 11
184.0
 21
1148.0
 31
0.0
  0
LINE
  5
22A
330
1E
100
AcDbEntity
  8
1
  6
Continuous
 62
     7
100
AcDbLine
 10
617.0
 20
1126.0
 30
0.0
 11
616.0
 21
1126.0
 31
0.0
  0
LINE
  5
22B
330
1E
100
AcDbEntity
  8
1
  6
Continuous
 62
     7
100
AcDbLine
 10
616.0
 20
1126.0
 30
0.0
 11
616.0
 21
1107.0
 31
0.0
  0
LINE
  5
22C
330
1E
100
AcDbEntity
  8
1
  6
Continuous
 62
     7
100
AcDbLine
 10
616.0
 20
1115.0
 30
0.0
 11
615.0
 21
1115.0
 31
0.0
  0
LINE
  5
22D
330
1E
100
AcDbEntity
  8
1
  6
Continuous
 62
     7
100
AcDbLine
 10
615.0
 20
1115.0
 30
0.0
 11
615.0
 21
1127.0
 31
0.0
  0
LINE
  5
22E
330
1E
100
AcDbEntity
  8
1
  6
Continuous
 62
     7
100
AcDbLine
 10
615.0
 20
1127.0
 30
0.0
 11
616.0
 21
1127.0
 31
0.0
  0
LINE
  5
22F
330
1E
100
AcDbEntity
  8
1
  6
Continuous
 62
     7
100
AcDbLine
 10
616.0
 20
1127.0
 30
0.0
 11
616.0
 21
1148.0
 31
0.0
  0
LINE
  5
230
330
1E
100
AcDbEntity
  8
1
  6
Continuous
 62
     7
100
AcDbLine
 10
616.0
 20
1107.0
 30
0.0
 11
184.0
 21
1107.0
 31
0.0
  0
LINE
  5
231
330
1E
100
AcDbEntity
  8
1
  6
Continuous
 62
     7
100
AcDbLine
 10
214.0
 20
1150.0
 30
0.0
 11
214.0
 21
1156.0
 31
0.0
  0
LINE
  5
232
330
1E
100
AcDbEntity
  8
1
  6
Continuous
 62
     7
100
AcDbLine
 10
214.0
 20
1156.0
 30
0.0
 11
234.0
 21
1156.0
 31
0.0
  0
LINE
  5
233
330
1E
100
AcDbEntity
  8
1
  6
Continuous
 62
     7
100
AcDbLine
 10
234.0
 20
1156.0
 30
0.0
 11
234.0
 21
1150.0
 31
0.0
  0
LINE
  5
234
330
1E
100
AcDbEntity
  8
1
  6
Continuous
 62
     7
100
AcDbLine
 10
566.0
 20
1150.0
 30
0.0
 11
566.0
 21
1156.0
 31
0.0
  0
LINE
  5
235
330
1E
100
AcDbEntity
  8
1
  6
Continuous
 62
     7
100
AcDbLine
 10
566.0
 20
1156.0
 30
0.0
 11
586.0
 21
1156.0
 31
0.0
  0
LINE
  5
236
330
1E
100
AcDbEntity
  8
1
  6
Continuous
 62
     7
100
AcDbLine
 10
586.0
 20
1156.0
 30
0.0
 11
586.0
 21
1150.0
 31
0.0
  0
CIRCLE
  5
237
330
1E
100
AcDbEntity
  8
1
  6
Continuous
 62
     7
100
AcDbCircle
 10
568.0
 20
1119.0
 30
0.0
 40
6.5
  0
CIRCLE
  5
238
330
1E
100
AcDbEntity
  8
1
  6
Continuous
 62
     7
100
AcDbCircle
 10
568.0
 20
1119.0
 30
0.0
 40
4.75
  0
CIRCLE
  5
239
330
1E
100
AcDbEntity
  8
1
  6
Continuous
 62
     7
100
AcDbCircle
 10
568.0
 20
1119.0
 30
0.0
 40
4.0
  0
CIRCLE
  5
23A
330
1E
100
AcDbEntity
  8
1
  6
Continuous
 62
     7
100
AcDbCircle
 10
568.0
 20
1119.0
 30
0.0
 40
2.5
  0
CIRCLE
  5
23B
330
1E
100
AcDbEntity
  8
1
  6
Continuous
 62
     7
100
AcDbCircle
 10
568.0
 20
1119.0
 30
0.0
 40
0.75
  0
LINE
  5
23C
330
1E
100
AcDbEntity
  8
1
  6
Continuous
 62
     7
100
AcDbLine
 10
563.3564559999999
 20
1120.0
 30
0.0
 11
562.5
 21
1120.0
 31
0.0
  0
LINE
  5
23D
330
1E
100
AcDbEntity
  8
1
  6
Continuous
 62
     7
100
AcDbLine
 10
562.5
 20
1120.0
 30
0.0
 11
562.5
 21
1118.0
 31
0.0
  0
LINE
  5
23E
330
1E
100
AcDbEntity
  8
1
  6
Continuous
 62
     7
100
AcDbLine
 10
562.5
 20
1118.0
 30
0.0
 11
563.3564559999999
 21
1118.0
 31
0.0
  0
LINE
  5
23F
330
1E
100
AcDbEntity
  8
1
  6
Continuous
 62
     7
100
AcDbLine
 10
572.643544
 20
1120.0
 30
0.0
 11
573.5
 21
1120.0
 31
0.0
  0
LINE
  5
240
330
1E
100
AcDbEntity
  8
1
  6
Continuous
 62
     7
100
AcDbLine
 10
573.5
 20
1120.0
 30
0.0
 11
573.5
 21
1118.0
 31
0.0
  0
LINE
  5
241
330
1E
100
AcDbEntity
  8
1
  6
Continuous
 62
     7
100
AcDbLine
 10
573.5
 20
1118.0
 30
0.0
 11
572.643544
 21
1118.0
 31
0.0
  0
CIRCLE
  5
242
330
1E
100
AcDbEntity
  8
1
  6
Continuous
 62
     7
100
AcDbCircle
 10
568.0
 20
1134.0
 30
0.0
 40
6.5
  0
CIRCLE
  5
243
330
1E
100
AcDbEntity
  8
1
  6
Continuous
 62
     7
100
AcDbCircle
 10
568.0
 20
1134.0
 30
0.0
 40
4.75
  0
CIRCLE
  5
244
330
1E
100
AcDbEntity
  8
1
  6
Continuous
 62
     7
100
AcDbCircle
 10
568.0
 20
1134.0
 30
0.0
 40
4.0
  0
CIRCLE
  5
245
330
1E
100
AcDbEntity
  8
1
  6
Continuous
 62
     7
100
AcDbCircle
 10
568.0
 20
1134.0
 30
0.0
 40
2.5
  0
CIRCLE
  5
246
330
1E
100
AcDbEntity
  8
1
  6
Continuous
 62
     7
100
AcDbCircle
 10
568.0
 20
1134.0
 30
0.0
 40
0.75
  0
LINE
  5
247
330
1E
100
AcDbEntity
  8
1
  6
Continuous
 62
     7
100
AcDbLine
 10
563.3564559999999
 20
1135.0
 30
0.0
 11
562.5
 21
1135.0
 31
0.0
  0
LINE
  5
248
330
1E
100
AcDbEntity
  8
1
  6
Continuous
 62
     7
100
AcDbLine
 10
562.5
 20
1135.0
 30
0.0
 11
562.5
 21
1133.0
 31
0.0
  0
LINE
  5
249
330
1E
100
AcDbEntity
  8
1
  6
Continuous
 62
     7
100
AcDbLine
 10
562.5
 20
1133.0
 30
0.0
 11
563.3564559999999
 21
1133.0
 31
0.0
  0
LINE
  5
24A
330
1E
100
AcDbEntity
  8
1
  6
Continuous
 62
     7
100
AcDbLine
 10
572.643544
 20
1135.0
 30
0.0
 11
573.5
 21
1135.0
 31
0.0
  0
LINE
  5
24B
330
1E
100
AcDbEntity
  8
1
  6
Continuous
 62
     7
100
AcDbLine
 10
573.5
 20
1135.0
 30
0.0
 11
573.5
 21
1133.0
 31
0.0
  0
LINE
  5
24C
330
1E
100
AcDbEntity
  8
1
  6
Continuous
 62
     7
100
AcDbLine
 10
573.5
 20
1133.0
 30
0.0
 11
572.643544
 21
1133.0
 31
0.0
  0
CIRCLE
  5
24D
330
1E
100
AcDbEntity
  8
1
  6
Continuous
 62
     7
100
AcDbCircle
 10
548.0
 20
1134.0
 30
0.0
 40
6.5
  0
CIRCLE
  5
24E
330
1E
100
AcDbEntity
  8
1
  6
Continuous
 62
     7
100
AcDbCircle
 10
548.0
 20
1134.0
 30
0.0
 40
4.75
  0
CIRCLE
  5
24F
330
1E
100
AcDbEntity
  8
1
  6
Continuous
 62
     7
100
AcDbCircle
 10
548.0
 20
1134.0
 30
0.0
 40
4.0
  0
CIRCLE
  5
250
330
1E
100
AcDbEntity
  8
1
  6
Continuous
 62
     7
100
AcDbCircle
 10
548.0
 20
1134.0
 30
0.0
 40
2.5
  0
CIRCLE
  5
251
330
1E
100
AcDbEntity
  8
1
  6
Continuous
 62
     7
100
AcDbCircle
 10
548.0
 20
1134.0
 30
0.0
 40
0.75
  0
LINE
  5
252
330
1E
100
AcDbEntity
  8
1
  6
Continuous
 62
     7
100
AcDbLine
 10
543.3564559999999
 20
1135.0
 30
0.0
 11
542.4999999999999
 21
1135.0
 31
0.0
  0
LINE
  5
253
330
1E
100
AcDbEntity
  8
1
  6
Continuous
 62
     7
100
AcDbLine
 10
542.4999999999999
 20
1135.0
 30
0.0
 11
542.4999999999999
 21
1133.0
 31
0.0
  0
LINE
  5
254
330
1E
100
AcDbEntity
  8
1
  6
Continuous
 62
     7
100
AcDbLine
 10
542.4999999999999
 20
1133.0
 30
0.0
 11
543.3564559999999
 21
1133.0
 31
0.0
  0
LINE
  5
255
330
1E
100
AcDbEntity
  8
1
  6
Continuous
 62
     7
100
AcDbLine
 10
552.643544
 20
1135.0
 30
0.0
 11
553.5
 21
1135.0
 31
0.0
  0
LINE
  5
256
330
1E
100
AcDbEntity
  8
1
  6
Continuous
 62
     7
100
AcDbLine
 10
553.5
 20
1135.0
 30
0.0
 11
553.5
 21
1133.0
 31
0.0
  0
LINE
  5
257
330
1E
100
AcDbEntity
  8
1
  6
Continuous
 62
     7
100
AcDbLine
 10
553.5
 20
1133.0
 30
0.0
 11
552.643544
 21
1133.0
 31
0.0
  0
CIRCLE
  5
258
330
1E
100
AcDbEntity
  8
1
  6
Continuous
 62
     7
100
AcDbCircle
 10
530.0
 20
1134.0
 30
0.0
 40
6.5
  0
CIRCLE
  5
259
330
1E
100
AcDbEntity
  8
1
  6
Continuous
 62
     7
100
AcDbCircle
 10
530.0
 20
1134.0
 30
0.0
 40
4.75
  0
CIRCLE
  5
25A
330
1E
100
AcDbEntity
  8
1
  6
Continuous
 62
     7
100
AcDbCircle
 10
530.0
 20
1134.0
 30
0.0
 40
4.0
  0
CIRCLE
  5
25B
330
1E
100
AcDbEntity
  8
1
  6
Continuous
 62
     7
100
AcDbCircle
 10
530.0
 20
1134.0
 30
0.0
 40
2.5
  0
CIRCLE
  5
25C
330
1E
100
AcDbEntity
  8
1
  6
Continuous
 62
     7
100
AcDbCircle
 10
530.0
 20
1134.0
 30
0.0
 40
0.75
  0
LINE
  5
25D
330
1E
100
AcDbEntity
  8
1
  6
Continuous
 62
     7
100
AcDbLine
 10
525.356456
 20
1135.0
 30
0.0
 11
524.5
 21
1135.0
 31
0.0
  0
LINE
  5
25E
330
1E
100
AcDbEntity
  8
1
  6
Continuous
 62
     7
100
AcDbLine
 10
524.5
 20
1135.0
 30
0.0
 11
524.5
 21
1133.0
 31
0.0
  0
LINE
  5
25F
330
1E
100
AcDbEntity
  8
1
  6
Continuous
 62
     7
100
AcDbLine
 10
524.5
 20
1133.0
 30
0.0
 11
525.356456
 21
1133.0
 31
0.0
  0
LINE
  5
260
330
1E
100
AcDbEntity
  8
1
  6
Continuous
 62
     7
100
AcDbLine
 10
534.643544
 20
1135.0
 30
0.0
 11
535.5
 21
1135.0
 31
0.0
  0
LINE
  5
261
330
1E
100
AcDbEntity
  8
1
  6
Continuous
 62
     7
100
AcDbLine
 10
535.5
 20
1135.0
 30
0.0
 11
535.5
 21
1133.0
 31
0.0
  0
LINE
  5
262
330
1E
100
AcDbEntity
  8
1
  6
Continuous
 62
     7
100
AcDbLine
 10
535.5
 20
1133.0
 30
0.0
 11
534.643544
 21
1133.0
 31
0.0
  0
CIRCLE
  5
263
330
1E
100
AcDbEntity
  8
1
  6
Continuous
 62
     7
100
AcDbCircle
 10
512.0
 20
1134.0
 30
0.0
 40
6.5
  0
CIRCLE
  5
264
330
1E
100
AcDbEntity
  8
1
  6
Continuous
 62
     7
100
AcDbCircle
 10
512.0
 20
1134.0
 30
0.0
 40
4.75
  0
CIRCLE
  5
265
330
1E
100
AcDbEntity
  8
1
  6
Continuous
 62
     7
100
AcDbCircle
 10
512.0
 20
1134.0
 30
0.0
 40
4.0
  0
CIRCLE
  5
266
330
1E
100
AcDbEntity
  8
1
  6
Continuous
 62
     7
100
AcDbCircle
 10
512.0
 20
1134.0
 30
0.0
 40
2.5
  0
CIRCLE
  5
267
330
1E
100
AcDbEntity
  8
1
  6
Continuous
 62
     7
100
AcDbCircle
 10
512.0
 20
1134.0
 30
0.0
 40
0.75
  0
LINE
  5
268
330
1E
100
AcDbEntity
  8
1
  6
Continuous
 62
     7
100
AcDbLine
 10
507.356456
 20
1135.0
 30
0.0
 11
506.5
 21
1135.0
 31
0.0
  0
LINE
  5
269
330
1E
100
AcDbEntity
  8
1
  6
Continuous
 62
     7
100
AcDbLine
 10
506.5
 20
1135.0
 30
0.0
 11
506.5
 21
1133.0
 31
0.0
  0
LINE
  5
26A
330
1E
100
AcDbEntity
  8
1
  6
Continuous
 62
     7
100
AcDbLine
 10
506.5
 20
1133.0
 30
0.0
 11
507.356456
 21
1133.0
 31
0.0
  0
LINE
  5
26B
330
1E
100
AcDbEntity
  8
1
  6
Continuous
 62
     7
100
AcDbLine
 10
516.6435439999999
 20
1135.0
 30
0.0
 11
517.4999999999999
 21
1135.0
 31
0.0
  0
LINE
  5
26C
330
1E
100
AcDbEntity
  8
1
  6
Continuous
 62
     7
100
AcDbLine
 10
517.4999999999999
 20
1135.0
 30
0.0
 11
517.4999999999999
 21
1133.0
 31
0.0
  0
LINE
  5
26D
330
1E
100
AcDbEntity
  8
1
  6
Continuous
 62
     7
100
AcDbLine
 10
517.4999999999999
 20
1133.0
 30
0.0
 11
516.6435439999999
 21
1133.0
 31
0.0
  0
CIRCLE
  5
26E
330
1E
100
AcDbEntity
  8
1
  6
Continuous
 62
     7
100
AcDbCircle
 10
494.0
 20
1134.0
 30
0.0
 40
6.5
  0
CIRCLE
  5
26F
330
1E
100
AcDbEntity
  8
1
  6
Continuous
 62
     7
100
AcDbCircle
 10
494.0
 20
1134.0
 30
0.0
 40
4.75
  0
CIRCLE
  5
270
330
1E
100
AcDbEntity
  8
1
  6
Continuous
 62
     7
100
AcDbCircle
 10
494.0
 20
1134.0
 30
0.0
 40
4.0
  0
CIRCLE
  5
271
330
1E
100
AcDbEntity
  8
1
  6
Continuous
 62
     7
100
AcDbCircle
 10
494.0
 20
1134.0
 30
0.0
 40
2.5
  0
CIRCLE
  5
272
330
1E
100
AcDbEntity
  8
1
  6
Continuous
 62
     7
100
AcDbCircle
 10
494.0
 20
1134.0
 30
0.0
 40
0.75
  0
LINE
  5
273
330
1E
100
AcDbEntity
  8
1
  6
Continuous
 62
     7
100
AcDbLine
 10
489.3564559999999
 20
1135.0
 30
0.0
 11
488.4999999999999
 21
1135.0
 31
0.0
  0
LINE
  5
274
330
1E
100
AcDbEntity
  8
1
  6
Continuous
 62
     7
100
AcDbLine
 10
488.4999999999999
 20
1135.0
 30
0.0
 11
488.4999999999999
 21
1133.0
 31
0.0
  0
LINE
  5
275
330
1E
100
AcDbEntity
  8
1
  6
Continuous
 62
     7
100
AcDbLine
 10
488.4999999999999
 20
1133.0
 30
0.0
 11
489.3564559999999
 21
1133.0
 31
0.0
  0
LINE
  5
276
330
1E
100
AcDbEntity
  8
1
  6
Continuous
 62
     7
100
AcDbLine
 10
498.643544
 20
1135.0
 30
0.0
 11
499.5
 21
1135.0
 31
0.0
  0
LINE
  5
277
330
1E
100
AcDbEntity
  8
1
  6
Continuous
 62
     7
100
AcDbLine
 10
499.5
 20
1135.0
 30
0.0
 11
499.5
 21
1133.0
 31
0.0
  0
LINE
  5
278
330
1E
100
AcDbEntity
  8
1
  6
Continuous
 62
     7
100
AcDbLine
 10
499.5
 20
1133.0
 30
0.0
 11
498.643544
 21
1133.0
 31
0.0
  0
LINE
  5
279
330
1E
100
AcDbEntity
  8
1
  6
Continuous
 62
     7
100
AcDbLine
 10
426.4999999999999
 20
1143.0
 30
0.0
 11
426.4999999999999
 21
1130.0
 31
0.0
  0
LINE
  5
27A
330
1E
100
AcDbEntity
  8
1
  6
Continuous
 62
     7
100
AcDbLine
 10
426.4999999999999
 20
1130.0
 30
0.0
 11
479.0
 21
1130.0
 31
0.0
  0
LINE
  5
27B
330
1E
100
AcDbEntity
  8
1
  6
Continuous
 62
     7
100
AcDbLine
 10
479.0
 20
1130.0
 30
0.0
 11
479.0
 21
1143.0
 31
0.0
  0
LINE
  5
27C
330
1E
100
AcDbEntity
  8
1
  6
Continuous
 62
     7
100
AcDbLine
 10
479.0
 20
1143.0
 30
0.0
 11
426.4999999999999
 21
1143.0
 31
0.0
  0
LINE
  5
27D
330
1E
100
AcDbEntity
  8
1
  6
Continuous
 62
     7
100
AcDbLine
 10
426.4999999999999
 20
1132.5
 30
0.0
 11
479.0
 21
1132.5
 31
0.0
  0
LINE
  5
27E
330
1E
100
AcDbEntity
  8
1
  6
Continuous
 62
     7
100
AcDbLine
 10
474.0
 20
1137.0
 30
0.0
 11
474.0
 21
1133.5
 31
0.0
  0
LINE
  5
27F
330
1E
100
AcDbEntity
  8
1
  6
Continuous
 62
     7
100
AcDbLine
 10
474.0
 20
1133.5
 30
0.0
 11
474.8
 21
1133.5
 31
0.0
  0
LINE
  5
280
330
1E
100
AcDbEntity
  8
1
  6
Continuous
 62
     7
100
AcDbLine
 10
474.8
 20
1133.5
 30
0.0
 11
474.8
 21
1137.0
 31
0.0
  0
LINE
  5
281
330
1E
100
AcDbEntity
  8
1
  6
Continuous
 62
     7
100
AcDbLine
 10
474.8
 20
1137.0
 30
0.0
 11
474.0
 21
1137.0
 31
0.0
  0
CIRCLE
  5
282
330
1E
100
AcDbEntity
  8
1
  6
Continuous
 62
     7
100
AcDbCircle
 10
476.9
 20
1135.0
 30
0.0
 40
1.5
  0
LINE
  5
283
330
1E
100
AcDbEntity
  8
1
  6
Continuous
 62
     7
100
AcDbLine
 10
474.0
 20
1132.5
 30
0.0
 11
474.0
 21
1130.0
 31
0.0
  0
LINE
  5
284
330
1E
100
AcDbEntity
  8
1
  6
Continuous
 62
     7
100
AcDbLine
 10
474.6
 20
1131.9
 30
0.0
 11
474.6
 21
1130.6
 31
0.0
  0
LINE
  5
285
330
1E
100
AcDbEntity
  8
1
  6
Continuous
 62
     7
100
AcDbLine
 10
474.6
 20
1130.6
 30
0.0
 11
478.3999999999999
 21
1130.6
 31
0.0
  0
LINE
  5
286
330
1E
100
AcDbEntity
  8
1
  6
Continuous
 62
     7
100
AcDbLine
 10
478.3999999999999
 20
1130.6
 30
0.0
 11
478.3999999999999
 21
1131.9
 31
0.0
  0
LINE
  5
287
330
1E
100
AcDbEntity
  8
1
  6
Continuous
 62
     7
100
AcDbLine
 10
478.3999999999999
 20
1131.9
 30
0.0
 11
474.6
 21
1131.9
 31
0.0
  0
LINE
  5
288
330
1E
100
AcDbEntity
  8
1
  6
Continuous
 62
     7
100
AcDbLine
 10
469.0
 20
1137.0
 30
0.0
 11
469.0
 21
1133.5
 31
0.0
  0
LINE
  5
289
330
1E
100
AcDbEntity
  8
1
  6
Continuous
 62
     7
100
AcDbLine
 10
469.0
 20
1133.5
 30
0.0
 11
469.8
 21
1133.5
 31
0.0
  0
LINE
  5
28A
330
1E
100
AcDbEntity
  8
1
  6
Continuous
 62
     7
100
AcDbLine
 10
469.8
 20
1133.5
 30
0.0
 11
469.8
 21
1137.0
 31
0.0
  0
LINE
  5
28B
330
1E
100
AcDbEntity
  8
1
  6
Continuous
 62
     7
100
AcDbLine
 10
469.8
 20
1137.0
 30
0.0
 11
469.0
 21
1137.0
 31
0.0
  0
CIRCLE
  5
28C
330
1E
100
AcDbEntity
  8
1
  6
Continuous
 62
     7
100
AcDbCircle
 10
471.9
 20
1135.0
 30
0.0
 40
1.5
  0
LINE
  5
28D
330
1E
100
AcDbEntity
  8
1
  6
Continuous
 62
     7
100
AcDbLine
 10
469.0
 20
1132.5
 30
0.0
 11
469.0
 21
1130.0
 31
0.0
  0
LINE
  5
28E
330
1E
100
AcDbEntity
  8
1
  6
Continuous
 62
     7
100
AcDbLine
 10
469.6
 20
1131.9
 30
0.0
 11
469.6
 21
1130.6
 31
0.0
  0
LINE
  5
28F
330
1E
100
AcDbEntity
  8
1
  6
Continuous
 62
     7
100
AcDbLine
 10
469.6
 20
1130.6
 30
0.0
 11
473.3999999999999
 21
1130.6
 31
0.0
  0
LINE
  5
290
330
1E
100
AcDbEntity
  8
1
  6
Continuous
 62
     7
100
AcDbLine
 10
473.3999999999999
 20
1130.6
 30
0.0
 11
473.3999999999999
 21
1131.9
 31
0.0
  0
LINE
  5
291
330
1E
100
AcDbEntity
  8
1
  6
Continuous
 62
     7
100
AcDbLine
 10
473.3999999999999
 20
1131.9
 30
0.0
 11
469.6
 21
1131.9
 31
0.0
  0
LINE
  5
292
330
1E
100
AcDbEntity
  8
1
  6
Continuous
 62
     7
100
AcDbLine
 10
464.0
 20
1137.0
 30
0.0
 11
464.0
 21
1133.5
 31
0.0
  0
LINE
  5
293
330
1E
100
AcDbEntity
  8
1
  6
Continuous
 62
     7
100
AcDbLine
 10
464.0
 20
1133.5
 30
0.0
 11
464.8
 21
1133.5
 31
0.0
  0
LINE
  5
294
330
1E
100
AcDbEntity
  8
1
  6
Continuous
 62
     7
100
AcDbLine
 10
464.8
 20
1133.5
 30
0.0
 11
464.8
 21
1137.0
 31
0.0
  0
LINE
  5
295
330
1E
100
AcDbEntity
  8
1
  6
Continuous
 62
     7
100
AcDbLine
 10
464.8
 20
1137.0
 30
0.0
 11
464.0
 21
1137.0
 31
0.0
  0
CIRCLE
  5
296
330
1E
100
AcDbEntity
  8
1
  6
Continuous
 62
     7
100
AcDbCircle
 10
466.8999999999999
 20
1135.0
 30
0.0
 40
1.5
  0
LINE
  5
297
330
1E
100
AcDbEntity
  8
1
  6
Continuous
 62
     7
100
AcDbLine
 10
464.0
 20
1132.5
 30
0.0
 11
464.0
 21
1130.0
 31
0.0
  0
LINE
  5
298
330
1E
100
AcDbEntity
  8
1
  6
Continuous
 62
     7
100
AcDbLine
 10
464.5999999999999
 20
1131.9
 30
0.0
 11
464.5999999999999
 21
1130.6
 31
0.0
  0
LINE
  5
299
330
1E
100
AcDbEntity
  8
1
  6
Continuous
 62
     7
100
AcDbLine
 10
464.5999999999999
 20
1130.6
 30
0.0
 11
468.4
 21
1130.6
 31
0.0
  0
LINE
  5
29A
330
1E
100
AcDbEntity
  8
1
  6
Continuous
 62
     7
100
AcDbLine
 10
468.4
 20
1130.6
 30
0.0
 11
468.4
 21
1131.9
 31
0.0
  0
LINE
  5
29B
330
1E
100
AcDbEntity
  8
1
  6
Continuous
 62
     7
100
AcDbLine
 10
468.4
 20
1131.9
 30
0.0
 11
464.5999999999999
 21
1131.9
 31
0.0
  0
LINE
  5
29C
330
1E
100
AcDbEntity
  8
1
  6
Continuous
 62
     7
100
AcDbLine
 10
459.0
 20
1137.0
 30
0.0
 11
459.0
 21
1133.5
 31
0.0
  0
LINE
  5
29D
330
1E
100
AcDbEntity
  8
1
  6
Continuous
 62
     7
100
AcDbLine
 10
459.0
 20
1133.5
 30
0.0
 11
459.7999999999999
 21
1133.5
 31
0.0
  0
LINE
  5
29E
330
1E
100
AcDbEntity
  8
1
  6
Continuous
 62
     7
100
AcDbLine
 10
459.7999999999999
 20
1133.5
 30
0.0
 11
459.7999999999999
 21
1137.0
 31
0.0
  0
LINE
  5
29F
330
1E
100
AcDbEntity
  8
1
  6
Continuous
 62
     7
100
AcDbLine
 10
459.7999999999999
 20
1137.0
 30
0.0
 11
459.0
 21
1137.0
 31
0.0
  0
CIRCLE
  5
2A0
330
1E
100
AcDbEntity
  8
1
  6
Continuous
 62
     7
100
AcDbCircle
 10
461.8999999999999
 20
1135.0
 30
0.0
 40
1.5
  0
LINE
  5
2A1
330
1E
100
AcDbEntity
  8
1
  6
Continuous
 62
     7
100
AcDbLine
 10
459.0
 20
1132.5
 30
0.0
 11
459.0
 21
1130.0
 31
0.0
  0
LINE
  5
2A2
330
1E
100
AcDbEntity
  8
1
  6
Continuous
 62
     7
100
AcDbLine
 10
459.6
 20
1131.9
 30
0.0
 11
459.6
 21
1130.6
 31
0.0
  0
LINE
  5
2A3
330
1E
100
AcDbEntity
  8
1
  6
Continuous
 62
     7
100
AcDbLine
 10
459.6
 20
1130.6
 30
0.0
 11
463.3999999999999
 21
1130.6
 31
0.0
  0
LINE
  5
2A4
330
1E
100
AcDbEntity
  8
1
  6
Continuous
 62
     7
100
AcDbLine
 10
463.3999999999999
 20
1130.6
 30
0.0
 11
463.3999999999999
 21
1131.9
 31
0.0
  0
LINE
  5
2A5
330
1E
100
AcDbEntity
  8
1
  6
Continuous
 62
     7
100
AcDbLine
 10
463.3999999999999
 20
1131.9
 30
0.0
 11
459.6
 21
1131.9
 31
0.0
  0
LINE
  5
2A6
330
1E
100
AcDbEntity
  8
1
  6
Continuous
 62
     7
100
AcDbLine
 10
454.0
 20
1137.0
 30
0.0
 11
454.0
 21
1133.5
 31
0.0
  0
LINE
  5
2A7
330
1E
100
AcDbEntity
  8
1
  6
Continuous
 62
     7
100
AcDbLine
 10
454.0
 20
1133.5
 30
0.0
 11
454.8
 21
1133.5
 31
0.0
  0
LINE
  5
2A8
330
1E
100
AcDbEntity
  8
1
  6
Continuous
 62
     7
100
AcDbLine
 10
454.8
 20
1133.5
 30
0.0
 11
454.8
 21
1137.0
 31
0.0
  0
LINE
  5
2A9
330
1E
100
AcDbEntity
  8
1
  6
Continuous
 62
     7
100
AcDbLine
 10
454.8
 20
1137.0
 30
0.0
 11
454.0
 21
1137.0
 31
0.0
  0
CIRCLE
  5
2AA
330
1E
100
AcDbEntity
  8
1
  6
Continuous
 62
     7
100
AcDbCircle
 10
456.8999999999999
 20
1135.0
 30
0.0
 40
1.5
  0
LINE
  5
2AB
330
1E
100
AcDbEntity
  8
1
  6
Continuous
 62
     7
100
AcDbLine
 10
454.0
 20
1132.5
 30
0.0
 11
454.0
 21
1130.0
 31
0.0
  0
LINE
  5
2AC
330
1E
100
AcDbEntity
  8
1
  6
Continuous
 62
     7
100
AcDbLine
 10
454.6
 20
1131.9
 30
0.0
 11
454.6
 21
1130.6
 31
0.0
  0
LINE
  5
2AD
330
1E
100
AcDbEntity
  8
1
  6
Continuous
 62
     7
100
AcDbLine
 10
454.6
 20
1130.6
 30
0.0
 11
458.3999999999999
 21
1130.6
 31
0.0
  0
LINE
  5
2AE
330
1E
100
AcDbEntity
  8
1
  6
Continuous
 62
     7
100
AcDbLine
 10
458.3999999999999
 20
1130.6
 30
0.0
 11
458.3999999999999
 21
1131.9
 31
0.0
  0
LINE
  5
2AF
330
1E
100
AcDbEntity
  8
1
  6
Continuous
 62
     7
100
AcDbLine
 10
458.3999999999999
 20
1131.9
 30
0.0
 11
454.6
 21
1131.9
 31
0.0
  0
LINE
  5
2B0
330
1E
100
AcDbEntity
  8
1
  6
Continuous
 62
     7
100
AcDbLine
 10
449.0
 20
1137.0
 30
0.0
 11
449.0
 21
1133.5
 31
0.0
  0
LINE
  5
2B1
330
1E
100
AcDbEntity
  8
1
  6
Continuous
 62
     7
100
AcDbLine
 10
449.0
 20
1133.5
 30
0.0
 11
449.8
 21
1133.5
 31
0.0
  0
LINE
  5
2B2
330
1E
100
AcDbEntity
  8
1
  6
Continuous
 62
     7
100
AcDbLine
 10
449.8
 20
1133.5
 30
0.0
 11
449.8
 21
1137.0
 31
0.0
  0
LINE
  5
2B3
330
1E
100
AcDbEntity
  8
1
  6
Continuous
 62
     7
100
AcDbLine
 10
449.8
 20
1137.0
 30
0.0
 11
449.0
 21
1137.0
 31
0.0
  0
CIRCLE
  5
2B4
330
1E
100
AcDbEntity
  8
1
  6
Continuous
 62
     7
100
AcDbCircle
 10
451.9
 20
1135.0
 30
0.0
 40
1.5
  0
LINE
  5
2B5
330
1E
100
AcDbEntity
  8
1
  6
Continuous
 62
     7
100
AcDbLine
 10
449.0
 20
1132.5
 30
0.0
 11
449.0
 21
1130.0
 31
0.0
  0
LINE
  5
2B6
330
1E
100
AcDbEntity
  8
1
  6
Continuous
 62
     7
100
AcDbLine
 10
449.6
 20
1131.9
 30
0.0
 11
449.6
 21
1130.6
 31
0.0
  0
LINE
  5
2B7
330
1E
100
AcDbEntity
  8
1
  6
Continuous
 62
     7
100
AcDbLine
 10
449.6
 20
1130.6
 30
0.0
 11
453.3999999999999
 21
1130.6
 31
0.0
  0
LINE
  5
2B8
330
1E
100
AcDbEntity
  8
1
  6
Continuous
 62
     7
100
AcDbLine
 10
453.3999999999999
 20
1130.6
 30
0.0
 11
453.3999999999999
 21
1131.9
 31
0.0
  0
LINE
  5
2B9
330
1E
100
AcDbEntity
  8
1
  6
Continuous
 62
     7
100
AcDbLine
 10
453.3999999999999
 20
1131.9
 30
0.0
 11
449.6
 21
1131.9
 31
0.0
  0
LINE
  5
2BA
330
1E
100
AcDbEntity
  8
1
  6
Continuous
 62
     7
100
AcDbLine
 10
444.0
 20
1137.0
 30
0.0
 11
444.0
 21
1133.5
 31
0.0
  0
LINE
  5
2BB
330
1E
100
AcDbEntity
  8
1
  6
Continuous
 62
     7
100
AcDbLine
 10
444.0
 20
1133.5
 30
0.0
 11
444.8
 21
1133.5
 31
0.0
  0
LINE
  5
2BC
330
1E
100
AcDbEntity
  8
1
  6
Continuous
 62
     7
100
AcDbLine
 10
444.8
 20
1133.5
 30
0.0
 11
444.8
 21
1137.0
 31
0.0
  0
LINE
  5
2BD
330
1E
100
AcDbEntity
  8
1
  6
Continuous
 62
     7
100
AcDbLine
 10
444.8
 20
1137.0
 30
0.0
 11
444.0
 21
1137.0
 31
0.0
  0
CIRCLE
  5
2BE
330
1E
100
AcDbEntity
  8
1
  6
Continuous
 62
     7
100
AcDbCircle
 10
446.9
 20
1135.0
 30
0.0
 40
1.5
  0
LINE
  5
2BF
330
1E
100
AcDbEntity
  8
1
  6
Continuous
 62
     7
100
AcDbLine
 10
444.0
 20
1132.5
 30
0.0
 11
444.0
 21
1130.0
 31
0.0
  0
LINE
  5
2C0
330
1E
100
AcDbEntity
  8
1
  6
Continuous
 62
     7
100
AcDbLine
 10
444.6
 20
1131.9
 30
0.0
 11
444.6
 21
1130.6
 31
0.0
  0
LINE
  5
2C1
330
1E
100
AcDbEntity
  8
1
  6
Continuous
 62
     7
100
AcDbLine
 10
444.6
 20
1130.6
 30
0.0
 11
448.3999999999999
 21
1130.6
 31
0.0
  0
LINE
  5
2C2
330
1E
100
AcDbEntity
  8
1
  6
Continuous
 62
     7
100
AcDbLine
 10
448.3999999999999
 20
1130.6
 30
0.0
 11
448.3999999999999
 21
1131.9
 31
0.0
  0
LINE
  5
2C3
330
1E
100
AcDbEntity
  8
1
  6
Continuous
 62
     7
100
AcDbLine
 10
448.3999999999999
 20
1131.9
 30
0.0
 11
444.6
 21
1131.9
 31
0.0
  0
LINE
  5
2C4
330
1E
100
AcDbEntity
  8
1
  6
Continuous
 62
     7
100
AcDbLine
 10
439.0
 20
1137.0
 30
0.0
 11
439.0
 21
1133.5
 31
0.0
  0
LINE
  5
2C5
330
1E
100
AcDbEntity
  8
1
  6
Continuous
 62
     7
100
AcDbLine
 10
439.0
 20
1133.5
 30
0.0
 11
439.8
 21
1133.5
 31
0.0
  0
LINE
  5
2C6
330
1E
100
AcDbEntity
  8
1
  6
Continuous
 62
     7
100
AcDbLine
 10
439.8
 20
1133.5
 30
0.0
 11
439.8
 21
1137.0
 31
0.0
  0
LINE
  5
2C7
330
1E
100
AcDbEntity
  8
1
  6
Continuous
 62
     7
100
AcDbLine
 10
439.8
 20
1137.0
 30
0.0
 11
439.0
 21
1137.0
 31
0.0
  0
CIRCLE
  5
2C8
330
1E
100
AcDbEntity
  8
1
  6
Continuous
 62
     7
100
AcDbCircle
 10
441.8999999999999
 20
1135.0
 30
0.0
 40
1.5
  0
LINE
  5
2C9
330
1E
100
AcDbEntity
  8
1
  6
Continuous
 62
     7
100
AcDbLine
 10
439.0
 20
1132.5
 30
0.0
 11
439.0
 21
1130.0
 31
0.0
  0
LINE
  5
2CA
330
1E
100
AcDbEntity
  8
1
  6
Continuous
 62
     7
100
AcDbLine
 10
439.5999999999999
 20
1131.9
 30
0.0
 11
439.5999999999999
 21
1130.6
 31
0.0
  0
LINE
  5
2CB
330
1E
100
AcDbEntity
  8
1
  6
Continuous
 62
     7
100
AcDbLine
 10
439.5999999999999
 20
1130.6
 30
0.0
 11
443.4
 21
1130.6
 31
0.0
  0
LINE
  5
2CC
330
1E
100
AcDbEntity
  8
1
  6
Continuous
 62
     7
100
AcDbLine
 10
443.4
 20
1130.6
 30
0.0
 11
443.4
 21
1131.9
 31
0.0
  0
LINE
  5
2CD
330
1E
100
AcDbEntity
  8
1
  6
Continuous
 62
     7
100
AcDbLine
 10
443.4
 20
1131.9
 30
0.0
 11
439.5999999999999
 21
1131.9
 31
0.0
  0
LINE
  5
2CE
330
1E
100
AcDbEntity
  8
1
  6
Continuous
 62
     7
100
AcDbLine
 10
434.0
 20
1137.0
 30
0.0
 11
434.0
 21
1133.5
 31
0.0
  0
LINE
  5
2CF
330
1E
100
AcDbEntity
  8
1
  6
Continuous
 62
     7
100
AcDbLine
 10
434.0
 20
1133.5
 30
0.0
 11
434.7999999999999
 21
1133.5
 31
0.0
  0
LINE
  5
2D0
330
1E
100
AcDbEntity
  8
1
  6
Continuous
 62
     7
100
AcDbLine
 10
434.7999999999999
 20
1133.5
 30
0.0
 11
434.7999999999999
 21
1137.0
 31
0.0
  0
LINE
  5
2D1
330
1E
100
AcDbEntity
  8
1
  6
Continuous
 62
     7
100
AcDbLine
 10
434.7999999999999
 20
1137.0
 30
0.0
 11
434.0
 21
1137.0
 31
0.0
  0
CIRCLE
  5
2D2
330
1E
100
AcDbEntity
  8
1
  6
Continuous
 62
     7
100
AcDbCircle
 10
436.8999999999999
 20
1135.0
 30
0.0
 40
1.5
  0
LINE
  5
2D3
330
1E
100
AcDbEntity
  8
1
  6
Continuous
 62
     7
100
AcDbLine
 10
434.0
 20
1132.5
 30
0.0
 11
434.0
 21
1130.0
 31
0.0
  0
LINE
  5
2D4
330
1E
100
AcDbEntity
  8
1
  6
Continuous
 62
     7
100
AcDbLine
 10
434.6
 20
1131.9
 30
0.0
 11
434.6
 21
1130.6
 31
0.0
  0
LINE
  5
2D5
330
1E
100
AcDbEntity
  8
1
  6
Continuous
 62
     7
100
AcDbLine
 10
434.6
 20
1130.6
 30
0.0
 11
438.3999999999999
 21
1130.6
 31
0.0
  0
LINE
  5
2D6
330
1E
100
AcDbEntity
  8
1
  6
Continuous
 62
     7
100
AcDbLine
 10
438.3999999999999
 20
1130.6
 30
0.0
 11
438.3999999999999
 21
1131.9
 31
0.0
  0
LINE
  5
2D7
330
1E
100
AcDbEntity
  8
1
  6
Continuous
 62
     7
100
AcDbLine
 10
438.3999999999999
 20
1131.9
 30
0.0
 11
434.6
 21
1131.9
 31
0.0
  0
LINE
  5
2D8
330
1E
100
AcDbEntity
  8
1
  6
Continuous
 62
     7
100
AcDbLine
 10
429.0
 20
1137.0
 30
0.0
 11
429.0
 21
1133.5
 31
0.0
  0
LINE
  5
2D9
330
1E
100
AcDbEntity
  8
1
  6
Continuous
 62
     7
100
AcDbLine
 10
429.0
 20
1133.5
 30
0.0
 11
429.8
 21
1133.5
 31
0.0
  0
LINE
  5
2DA
330
1E
100
AcDbEntity
  8
1
  6
Continuous
 62
     7
100
AcDbLine
 10
429.8
 20
1133.5
 30
0.0
 11
429.8
 21
1137.0
 31
0.0
  0
LINE
  5
2DB
330
1E
100
AcDbEntity
  8
1
  6
Continuous
 62
     7
100
AcDbLine
 10
429.8
 20
1137.0
 30
0.0
 11
429.0
 21
1137.0
 31
0.0
  0
CIRCLE
  5
2DC
330
1E
100
AcDbEntity
  8
1
  6
Continuous
 62
     7
100
AcDbCircle
 10
431.8999999999999
 20
1135.0
 30
0.0
 40
1.5
  0
LINE
  5
2DD
330
1E
100
AcDbEntity
  8
1
  6
Continuous
 62
     7
100
AcDbLine
 10
429.0
 20
1132.5
 30
0.0
 11
429.0
 21
1130.0
 31
0.0
  0
LINE
  5
2DE
330
1E
100
AcDbEntity
  8
1
  6
Continuous
 62
     7
100
AcDbLine
 10
429.6
 20
1131.9
 30
0.0
 11
429.6
 21
1130.6
 31
0.0
  0
LINE
  5
2DF
330
1E
100
AcDbEntity
  8
1
  6
Continuous
 62
     7
100
AcDbLine
 10
429.6
 20
1130.6
 30
0.0
 11
433.3999999999999
 21
1130.6
 31
0.0
  0
LINE
  5
2E0
330
1E
100
AcDbEntity
  8
1
  6
Continuous
 62
     7
100
AcDbLine
 10
433.3999999999999
 20
1130.6
 30
0.0
 11
433.3999999999999
 21
1131.9
 31
0.0
  0
LINE
  5
2E1
330
1E
100
AcDbEntity
  8
1
  6
Continuous
 62
     7
100
AcDbLine
 10
433.3999999999999
 20
1131.9
 30
0.0
 11
429.6
 21
1131.9
 31
0.0
  0
LINE
  5
2E2
330
1E
100
AcDbEntity
  8
1
  6
Continuous
 62
     7
100
AcDbLine
 10
426.4999999999999
 20
1137.499999999999
 30
0.0
 11
479.0
 21
1137.499999999999
 31
0.0
  0
LINE
  5
2E3
330
1E
100
AcDbEntity
  8
1
  6
Continuous
 62
     7
100
AcDbLine
 10
241.5
 20
1124.5
 30
0.0
 11
241.5
 21
1117.5
 31
0.0
  0
LINE
  5
2E4
330
1E
100
AcDbEntity
  8
1
  6
Continuous
 62
     7
100
AcDbLine
 10
241.5
 20
1117.5
 30
0.0
 11
243.5
 21
1117.5
 31
0.0
  0
LINE
  5
2E5
330
1E
100
AcDbEntity
  8
1
  6
Continuous
 62
     7
100
AcDbLine
 10
243.5
 20
1117.5
 30
0.0
 11
243.5
 21
1124.5
 31
0.0
  0
LINE
  5
2E6
330
1E
100
AcDbEntity
  8
1
  6
Continuous
 62
     7
100
AcDbLine
 10
243.5
 20
1124.5
 30
0.0
 11
241.5
 21
1124.5
 31
0.0
  0
LINE
  5
2E7
330
1E
100
AcDbEntity
  8
1
  6
Continuous
 62
     7
100
AcDbLine
 10
234.5
 20
1129.499999999999
 30
0.0
 11
234.5
 21
1122.5
 31
0.0
  0
LINE
  5
2E8
330
1E
100
AcDbEntity
  8
1
  6
Continuous
 62
     7
100
AcDbLine
 10
234.5
 20
1122.5
 30
0.0
 11
236.5
 21
1122.5
 31
0.0
  0
LINE
  5
2E9
330
1E
100
AcDbEntity
  8
1
  6
Continuous
 62
     7
100
AcDbLine
 10
236.5
 20
1122.5
 30
0.0
 11
236.5
 21
1129.499999999999
 31
0.0
  0
LINE
  5
2EA
330
1E
100
AcDbEntity
  8
1
  6
Continuous
 62
     7
100
AcDbLine
 10
236.5
 20
1129.499999999999
 30
0.0
 11
234.5
 21
1129.499999999999
 31
0.0
  0
LINE
  5
2EB
330
1E
100
AcDbEntity
  8
1
  6
Continuous
 62
     7
100
AcDbLine
 10
248.4999999999999
 20
1129.499999999999
 30
0.0
 11
248.4999999999999
 21
1122.5
 31
0.0
  0
LINE
  5
2EC
330
1E
100
AcDbEntity
  8
1
  6
Continuous
 62
     7
100
AcDbLine
 10
248.4999999999999
 20
1122.5
 30
0.0
 11
250.4999999999999
 21
1122.5
 31
0.0
  0
LINE
  5
2ED
330
1E
100
AcDbEntity
  8
1
  6
Continuous
 62
     7
100
AcDbLine
 10
250.4999999999999
 20
1122.5
 30
0.0
 11
250.4999999999999
 21
1129.499999999999
 31
0.0
  0
LINE
  5
2EE
330
1E
100
AcDbEntity
  8
1
  6
Continuous
 62
     7
100
AcDbLine
 10
250.4999999999999
 20
1129.499999999999
 30
0.0
 11
248.4999999999999
 21
1129.499999999999
 31
0.0
  0
ARC
  5
2EF
330
1E
100
AcDbEntity
  8
1
  6
Continuous
 62
     7
100
AcDbCircle
 10
229.4999999999999
 20
1143.5
 30
0.0
 40
1.0
100
AcDbArc
 50
90.0
 51
180.0
  0
LINE
  5
2F0
330
1E
100
AcDbEntity
  8
1
  6
Continuous
 62
     7
100
AcDbLine
 10
255.5
 20
1144.5
 30
0.0
 11
229.4999999999999
 21
1144.5
 31
0.0
  0
ARC
  5
2F1
330
1E
100
AcDbEntity
  8
1
  6
Continuous
 62
     7
100
AcDbCircle
 10
255.5
 20
1143.5
 30
0.0
 40
1.0
100
AcDbArc
 50
0.0
 51
90.0
  0
LINE
  5
2F2
330
1E
100
AcDbEntity
  8
1
  6
Continuous
 62
     7
100
AcDbLine
 10
256.4999999999999
 20
1114.5
 30
0.0
 11
256.4999999999999
 21
1143.5
 31
0.0
  0
ARC
  5
2F3
330
1E
100
AcDbEntity
  8
1
  6
Continuous
 62
     7
100
AcDbCircle
 10
255.5
 20
1114.5
 30
0.0
 40
1.0
100
AcDbArc
 50
270.0
 51
0.0
  0
LINE
  5
2F4
330
1E
100
AcDbEntity
  8
1
  6
Continuous
 62
     7
100
AcDbLine
 10
229.4999999999999
 20
1113.499999999999
 30
0.0
 11
255.5
 21
1113.499999999999
 31
0.0
  0
LINE
  5
2F5
330
1E
100
AcDbEntity
  8
1
  6
Continuous
 62
     7
100
AcDbLine
 10
228.5
 20
1143.5
 30
0.0
 11
228.5
 21
1114.5
 31
0.0
  0
ARC
  5
2F6
330
1E
100
AcDbEntity
  8
1
  6
Continuous
 62
     7
100
AcDbCircle
 10
229.4999999999999
 20
1114.5
 30
0.0
 40
1.0
100
AcDbArc
 50
180.0
 51
270.0
  0
ARC
  5
2F7
330
1E
100
AcDbEntity
  8
1
  6
Continuous
 62
     7
100
AcDbCircle
 10
229.4999999999999
 20
1143.5
 30
0.0
 40
2.0
100
AcDbArc
 50
90.0
 51
180.0
  0
LINE
  5
2F8
330
1E
100
AcDbEntity
  8
1
  6
Continuous
 62
     7
100
AcDbLine
 10
255.5
 20
1145.499999999999
 30
0.0
 11
229.4999999999999
 21
1145.499999999999
 31
0.0
  0
ARC
  5
2F9
330
1E
100
AcDbEntity
  8
1
  6
Continuous
 62
     7
100
AcDbCircle
 10
255.5
 20
1143.5
 30
0.0
 40
2.0
100
AcDbArc
 50
0.0
 51
90.0
  0
LINE
  5
2FA
330
1E
100
AcDbEntity
  8
1
  6
Continuous
 62
     7
100
AcDbLine
 10
257.5
 20
1114.5
 30
0.0
 11
257.5
 21
1143.5
 31
0.0
  0
ARC
  5
2FB
330
1E
100
AcDbEntity
  8
1
  6
Continuous
 62
     7
100
AcDbCircle
 10
255.5
 20
1114.5
 30
0.0
 40
2.0
100
AcDbArc
 50
270.0
 51
0.0
  0
LINE
  5
2FC
330
1E
100
AcDbEntity
  8
1
  6
Continuous
 62
     7
100
AcDbLine
 10
229.4999999999999
 20
1112.5
 30
0.0
 11
255.5
 21
1112.5
 31
0.0
  0
LINE
  5
2FD
330
1E
100
AcDbEntity
  8
1
  6
Continuous
 62
     7
100
AcDbLine
 10
227.4999999999999
 20
1143.5
 30
0.0
 11
227.4999999999999
 21
1114.5
 31
0.0
  0
ARC
  5
2FE
330
1E
100
AcDbEntity
  8
1
  6
Continuous
 62
     7
100
AcDbCircle
 10
229.4999999999999
 20
1114.5
 30
0.0
 40
2.0
100
AcDbArc
 50
180.0
 51
270.0
  0
ARC
  5
2FF
330
1E
100
AcDbEntity
  8
1
  6
Continuous
 62
     7
100
AcDbCircle
 10
252.4999999999999
 20
1129.499999999999
 30
0.0
 40
2.0
100
AcDbArc
 50
0.0
 51
90.0
  0
LINE
  5
300
330
1E
100
AcDbEntity
  8
1
  6
Continuous
 62
     7
100
AcDbLine
 10
254.4999999999999
 20
1129.499999999999
 30
0.0
 11
254.4999999999999
 21
1120.46125
 31
0.0
  0
ARC
  5
301
330
1E
100
AcDbEntity
  8
1
  6
Continuous
 62
     7
100
AcDbCircle
 10
252.4999999999999
 20
1120.46125
 30
0.0
 40
2.0
100
AcDbArc
 50
308.6598079999999
 51
0.0
  0
LINE
  5
302
330
1E
100
AcDbEntity
  8
1
  6
Continuous
 62
     7
100
AcDbLine
 10
253.7493899999999
 20
1118.899512
 30
0.0
 11
250.0478279999999
 21
1115.938262
 31
0.0
  0
ARC
  5
303
330
1E
100
AcDbEntity
  8
1
  6
Continuous
 62
     7
100
AcDbCircle
 10
248.7984379999999
 20
1117.5
 30
0.0
 40
2.0
100
AcDbArc
 50
270.0
 51
308.6598079999999
  0
LINE
  5
304
330
1E
100
AcDbEntity
  8
1
  6
Continuous
 62
     7
100
AcDbLine
 10
248.7984379999999
 20
1115.499999999999
 30
0.0
 11
236.201562
 21
1115.499999999999
 31
0.0
  0
ARC
  5
305
330
1E
100
AcDbEntity
  8
1
  6
Continuous
 62
     7
100
AcDbCircle
 10
236.201562
 20
1117.5
 30
0.0
 40
2.0
100
AcDbArc
 50
231.340192
 51
270.0
  0
LINE
  5
306
330
1E
100
AcDbEntity
  8
1
  6
Continuous
 62
     7
100
AcDbLine
 10
234.952172
 20
1115.938262
 30
0.0
 11
231.25061
 21
1118.899512
 31
0.0
  0
ARC
  5
307
330
1E
100
AcDbEntity
  8
1
  6
Continuous
 62
     7
100
AcDbCircle
 10
232.5
 20
1120.46125
 30
0.0
 40
2.0
100
AcDbArc
 50
180.0
 51
231.340192
  0
LINE
  5
308
330
1E
100
AcDbEntity
  8
1
  6
Continuous
 62
     7
100
AcDbLine
 10
230.5
 20
1120.46125
 30
0.0
 11
230.5
 21
1129.499999999999
 31
0.0
  0
LINE
  5
309
330
1E
100
AcDbEntity
  8
1
  6
Continuous
 62
     7
100
AcDbLine
 10
232.5
 20
1131.499999999999
 30
0.0
 11
252.4999999999999
 21
1131.499999999999
 31
0.0
  0
ARC
  5
30A
330
1E
100
AcDbEntity
  8
1
  6
Continuous
 62
     7
100
AcDbCircle
 10
232.5
 20
1129.499999999999
 30
0.0
 40
2.0
100
AcDbArc
 50
90.0
 51
180.0
  0
LINE
  5
30B
330
1E
100
AcDbEntity
  8
1
  6
Continuous
 62
     7
100
AcDbLine
 10
230.5
 20
1142.5
 30
0.0
 11
230.5
 21
1133.5
 31
0.0
  0
LINE
  5
30C
330
1E
100
AcDbEntity
  8
1
  6
Continuous
 62
     7
100
AcDbLine
 10
230.5
 20
1133.5
 30
0.0
 11
237.5
 21
1133.5
 31
0.0
  0
LINE
  5
30D
330
1E
100
AcDbEntity
  8
1
  6
Continuous
 62
     7
100
AcDbLine
 10
237.5
 20
1133.5
 30
0.0
 11
237.5
 21
1131.499999999999
 31
0.0
  0
LINE
  5
30E
330
1E
100
AcDbEntity
  8
1
  6
Continuous
 62
     7
100
AcDbLine
 10
247.5
 20
1131.499999999999
 30
0.0
 11
247.5
 21
1133.5
 31
0.0
  0
LINE
  5
30F
330
1E
100
AcDbEntity
  8
1
  6
Continuous
 62
     7
100
AcDbLine
 10
247.5
 20
1133.5
 30
0.0
 11
254.4999999999999
 21
1133.5
 31
0.0
  0
LINE
  5
310
330
1E
100
AcDbEntity
  8
1
  6
Continuous
 62
     7
100
AcDbLine
 10
254.4999999999999
 20
1133.5
 30
0.0
 11
254.4999999999999
 21
1142.5
 31
0.0
  0
LINE
  5
311
330
1E
100
AcDbEntity
  8
1
  6
Continuous
 62
     7
100
AcDbLine
 10
254.4999999999999
 20
1142.5
 30
0.0
 11
230.5
 21
1142.5
 31
0.0
  0
LINE
  5
312
330
1E
100
AcDbEntity
  8
1
  6
Continuous
 62
     7
100
AcDbLine
 10
236.0
 20
1139.0
 30
0.0
 11
249.0
 21
1139.0
 31
0.0
  0
LINE
  5
313
330
1E
100
AcDbEntity
  8
1
  6
Continuous
 62
     7
100
AcDbLine
 10
236.0
 20
1135.0
 30
0.0
 11
249.0
 21
1135.0
 31
0.0
  0
LINE
  5
314
330
1E
100
AcDbEntity
  8
1
  6
Continuous
 62
     7
100
AcDbLine
 10
236.0
 20
1134.5
 30
0.0
 11
236.0
 21
1139.499999999999
 31
0.0
  0
LINE
  5
315
330
1E
100
AcDbEntity
  8
1
  6
Continuous
 62
     7
100
AcDbLine
 10
236.0
 20
1139.499999999999
 30
0.0
 11
233.4999999999999
 21
1139.499999999999
 31
0.0
  0
ARC
  5
316
330
1E
100
AcDbEntity
  8
1
  6
Continuous
 62
     7
100
AcDbCircle
 10
233.4999999999999
 20
1138.5
 30
0.0
 40
1.0
100
AcDbArc
 50
90.0
 51
180.0
  0
LINE
  5
317
330
1E
100
AcDbEntity
  8
1
  6
Continuous
 62
     7
100
AcDbLine
 10
232.5
 20
1138.5
 30
0.0
 11
232.5
 21
1135.5
 31
0.0
  0
LINE
  5
318
330
1E
100
AcDbEntity
  8
1
  6
Continuous
 62
     7
100
AcDbLine
 10
233.4999999999999
 20
1134.5
 30
0.0
 11
236.0
 21
1134.5
 31
0.0
  0
ARC
  5
319
330
1E
100
AcDbEntity
  8
1
  6
Continuous
 62
     7
100
AcDbCircle
 10
233.4999999999999
 20
1135.5
 30
0.0
 40
1.0
100
AcDbArc
 50
180.0
 51
270.0
  0
LINE
  5
31A
330
1E
100
AcDbEntity
  8
1
  6
Continuous
 62
     7
100
AcDbLine
 10
249.0
 20
1139.499999999999
 30
0.0
 11
249.0
 21
1134.5
 31
0.0
  0
LINE
  5
31B
330
1E
100
AcDbEntity
  8
1
  6
Continuous
 62
     7
100
AcDbLine
 10
249.0
 20
1134.5
 30
0.0
 11
251.5
 21
1134.5
 31
0.0
  0
ARC
  5
31C
330
1E
100
AcDbEntity
  8
1
  6
Continuous
 62
     7
100
AcDbCircle
 10
251.5
 20
1135.5
 30
0.0
 40
1.0
100
AcDbArc
 50
270.0
 51
0.0
  0
LINE
  5
31D
330
1E
100
AcDbEntity
  8
1
  6
Continuous
 62
     7
100
AcDbLine
 10
252.4999999999999
 20
1135.5
 30
0.0
 11
252.4999999999999
 21
1138.5
 31
0.0
  0
LINE
  5
31E
330
1E
100
AcDbEntity
  8
1
  6
Continuous
 62
     7
100
AcDbLine
 10
251.5
 20
1139.499999999999
 30
0.0
 11
249.0
 21
1139.499999999999
 31
0.0
  0
ARC
  5
31F
330
1E
100
AcDbEntity
  8
1
  6
Continuous
 62
     7
100
AcDbCircle
 10
251.5
 20
1138.5
 30
0.0
 40
1.0
100
AcDbArc
 50
0.0
 51
90.0
  0
LINE
  5
320
330
1E
100
AcDbEntity
  8
1
  6
Continuous
 62
     7
100
AcDbLine
 10
205.0
 20
1139.499999999999
 30
0.0
 11
205.0
 21
1118.5
 31
0.0
  0
LINE
  5
321
330
1E
100
AcDbEntity
  8
1
  6
Continuous
 62
     7
100
AcDbLine
 10
205.0
 20
1118.5
 30
0.0
 11
220.0
 21
1118.5
 31
0.0
  0
LINE
  5
322
330
1E
100
AcDbEntity
  8
1
  6
Continuous
 62
     7
100
AcDbLine
 10
220.0
 20
1118.5
 30
0.0
 11
220.0
 21
1139.499999999999
 31
0.0
  0
LINE
  5
323
330
1E
100
AcDbEntity
  8
1
  6
Continuous
 62
     7
100
AcDbLine
 10
220.0
 20
1139.499999999999
 30
0.0
 11
205.0
 21
1139.499999999999
 31
0.0
  0
LINE
  5
324
330
1E
100
AcDbEntity
  8
1
  6
Continuous
 62
     7
100
AcDbLine
 10
207.5
 20
1137.0
 30
0.0
 11
207.5
 21
1121.0
 31
0.0
  0
LINE
  5
325
330
1E
100
AcDbEntity
  8
1
  6
Continuous
 62
     7
100
AcDbLine
 10
207.5
 20
1121.0
 30
0.0
 11
217.5
 21
1121.0
 31
0.0
  0
LINE
  5
326
330
1E
100
AcDbEntity
  8
1
  6
Continuous
 62
     7
100
AcDbLine
 10
217.5
 20
1121.0
 30
0.0
 11
217.5
 21
1137.0
 31
0.0
  0
LINE
  5
327
330
1E
100
AcDbEntity
  8
1
  6
Continuous
 62
     7
100
AcDbLine
 10
217.5
 20
1137.0
 30
0.0
 11
207.5
 21
1137.0
 31
0.0
  0
LINE
  5
328
330
1E
100
AcDbEntity
  8
1
  6
Continuous
 62
     7
100
AcDbLine
 10
207.5
 20
1123.0
 30
0.0
 11
217.5
 21
1123.0
 31
0.0
  0
TEXT
  5
329
330
1E
100
AcDbEntity
  8
1
  6
Continuous
 62
     7
100
AcDbText
 10
218.5
 20
1116.75
 30
0.0
 40
3.0
  1
POWER
 50
180.0
 41
0.833333
  7
KANJI
100
AcDbText
  0
TEXT
  5
32A
330
1E
100
AcDbEntity
  8
1
  6
Continuous
 62
     7
100
AcDbText
 10
275.2499999999999
 20
1116.75
 30
0.0
 40
3.0
  1
AC
 50
180.0
 41
0.666667
  7
KANJI
100
AcDbText
  0
TEXT
  5
32B
330
1E
100
AcDbEntity
  8
1
  6
Continuous
 62
     7
100
AcDbText
 10
271.0
 20
1116.75
 30
0.0
 40
3.0
  1
IN
 50
180.0
 41
0.666667
  7
KANJI
100
AcDbText
  0
TEXT
  5
32C
330
1E
100
AcDbEntity
  8
1
  6
Continuous
 62
     7
100
AcDbText
 10
202.7499999999999
 20
1124.249999999999
 30
0.0
 40
3.0
  1
ON
 50
180.0
 41
0.666667
  7
KANJI
100
AcDbText
  0
TEXT
  5
32D
330
1E
100
AcDbEntity
  8
1
  6
Continuous
 62
     7
100
AcDbText
 10
202.7499999999999
 20
1138.249999999999
 30
0.0
 40
3.0
  1
OFF
 50
180.0
 41
0.666667
  7
KANJI
100
AcDbText
  0
LINE
  5
32E
330
1E
100
AcDbEntity
  8
1
  6
Continuous
 62
     7
100
AcDbLine
 10
212.5
 20
1124.0
 30
0.0
 11
212.5
 21
1127.0
 31
0.0
  0
CIRCLE
  5
32F
330
1E
100
AcDbEntity
  8
1
  6
Continuous
 62
     7
100
AcDbCircle
 10
212.5
 20
1133.0
 30
0.0
 40
2.0
  0
TEXT
  5
330
330
1E
100
AcDbEntity
  8
1
  6
Continuous
 62
     7
100
AcDbText
 10
276.0
 20
1120.25
 30
0.0
 40
3.0
  1
100～240V
 50
180.0
 41
0.7317070000000001
  7
KANJI
100
AcDbText
  0
TEXT
  5
331
330
1E
100
AcDbEntity
  8
1
  6
Continuous
 62
     7
100
AcDbText
 10
495.15
 20
1126.75
 30
0.0
 40
3.0
  1
4
 50
180.0
 41
0.666667
  7
KANJI
100
AcDbText
  0
TEXT
  5
332
330
1E
100
AcDbEntity
  8
1
  6
Continuous
 62
     7
100
AcDbText
 10
549.15
 20
1126.75
 30
0.0
 40
3.0
  1
1
 50
180.0
 41
0.666667
  7
KANJI
100
AcDbText
  0
TEXT
  5
333
330
1E
100
AcDbEntity
  8
1
  6
Continuous
 62
     7
100
AcDbText
 10
531.1499999999999
 20
1126.75
 30
0.0
 40
3.0
  1
2
 50
180.0
 41
0.666667
  7
KANJI
100
AcDbText
  0
TEXT
  5
334
330
1E
100
AcDbEntity
  8
1
  6
Continuous
 62
     7
100
AcDbText
 10
513.1499999999999
 20
1126.75
 30
0.0
 40
3.0
  1
3
 50
180.0
 41
0.666667
  7
KANJI
100
AcDbText
  0
LINE
  5
335
330
1E
100
AcDbEntity
  8
1
  6
Continuous
 62
     7
100
AcDbLine
 10
494.0
 20
1123.0
 30
0.0
 11
494.0
 21
1120.0
 31
0.0
  0
LINE
  5
336
330
1E
100
AcDbEntity
  8
1
  6
Continuous
 62
     7
100
AcDbLine
 10
494.0
 20
1120.0
 30
0.0
 11
548.0
 21
1120.0
 31
0.0
  0
LINE
  5
337
330
1E
100
AcDbEntity
  8
1
  6
Continuous
 62
     7
100
AcDbLine
 10
548.0
 20
1120.0
 30
0.0
 11
548.0
 21
1123.0
 31
0.0
  0
LINE
  5
338
330
1E
100
AcDbEntity
  8
1
  6
Continuous
 62
     7
100
AcDbLine
 10
512.0
 20
1123.0
 30
0.0
 11
512.0
 21
1120.0
 31
0.0
  0
LINE
  5
339
330
1E
100
AcDbEntity
  8
1
  6
Continuous
 62
     7
100
AcDbLine
 10
530.0
 20
1123.0
 30
0.0
 11
530.0
 21
1120.0
 31
0.0
  0
TEXT
  5
33A
330
1E
100
AcDbEntity
  8
1
  6
Continuous
 62
     7
100
AcDbText
 10
528.8499999999999
 20
1119.25
 30
0.0
 40
3.0
  1
CAMERA IN
 50
180.0
 41
0.6976740000000001
  7
KANJI
100
AcDbText
  0
TEXT
  5
33B
330
1E
100
AcDbEntity
  8
1
  6
Continuous
 62
     7
100
AcDbText
 10
587.75
 20
1118.047577
 30
0.0
 40
3.0
  1
VIDEO
 50
180.0
 41
0.666667
  7
KANJI
100
AcDbText
  0
TEXT
  5
33C
330
1E
100
AcDbEntity
  8
1
  6
Continuous
 62
     7
100
AcDbText
 10
589.6499999999999
 20
1121.547577
 30
0.0
 40
3.0
  1
OUTPUT1
 50
180.0
 41
0.666667
  7
KANJI
100
AcDbText
  0
TEXT
  5
33D
330
1E
100
AcDbEntity
  8
1
  6
Continuous
 62
     7
100
AcDbText
 10
587.75
 20
1133.047577
 30
0.0
 40
3.0
  1
VIDEO
 50
180.0
 41
0.666667
  7
KANJI
100
AcDbText
  0
TEXT
  5
33E
330
1E
100
AcDbEntity
  8
1
  6
Continuous
 62
     7
100
AcDbText
 10
589.6499999999999
 20
1136.547577
 30
0.0
 40
3.0
  1
OUTPUT2
 50
180.0
 41
0.666667
  7
KANJI
100
AcDbText
  0
CIRCLE
  5
33F
330
1E
100
AcDbEntity
  8
1
  6
Continuous
 62
     7
100
AcDbCircle
 10
503.0
 20
1129.25
 30
0.0
 40
2.5
  0
LINE
  5
340
330
1E
100
AcDbEntity
  8
1
  6
Continuous
 62
     7
100
AcDbLine
 10
501.25
 20
1129.25
 30
0.0
 11
504.75
 21
1129.25
 31
0.0
  0
LINE
  5
341
330
1E
100
AcDbEntity
  8
1
  6
Continuous
 62
     7
100
AcDbLine
 10
503.0
 20
1131.0
 30
0.0
 11
503.0
 21
1127.5
 31
0.0
  0
CIRCLE
  5
342
330
1E
100
AcDbEntity
  8
1
  6
Continuous
 62
     7
100
AcDbCircle
 10
539.0
 20
1129.25
 30
0.0
 40
2.5
  0
LINE
  5
343
330
1E
100
AcDbEntity
  8
1
  6
Continuous
 62
     7
100
AcDbLine
 10
537.25
 20
1129.25
 30
0.0
 11
540.7499999999999
 21
1129.25
 31
0.0
  0
LINE
  5
344
330
1E
100
AcDbEntity
  8
1
  6
Continuous
 62
     7
100
AcDbLine
 10
539.0
 20
1131.0
 30
0.0
 11
539.0
 21
1127.5
 31
0.0
  0
CIRCLE
  5
345
330
1E
100
AcDbEntity
  8
1
  6
Continuous
 62
     7
100
AcDbCircle
 10
575.2129119999999
 20
1126.5
 30
0.0
 40
2.5
  0
LINE
  5
346
330
1E
100
AcDbEntity
  8
1
  6
Continuous
 62
     7
100
AcDbLine
 10
573.462912
 20
1126.5
 30
0.0
 11
576.9629119999999
 21
1126.5
 31
0.0
  0
LINE
  5
347
330
1E
100
AcDbEntity
  8
1
  6
Continuous
 62
     7
100
AcDbLine
 10
575.2129119999999
 20
1128.25
 30
0.0
 11
575.2129119999999
 21
1124.75
 31
0.0
  0
LINE
  5
348
330
1E
100
AcDbEntity
  8
1
  6
Continuous
 62
     7
100
AcDbLine
 10
183.0
 20
1150.0
 30
0.0
 11
183.0
 21
1106.0
 31
0.0
  0
LINE
  5
349
330
1E
100
AcDbEntity
  8
1
  6
Continuous
 62
     7
100
AcDbLine
 10
183.0
 20
1106.0
 30
0.0
 11
617.0
 21
1106.0
 31
0.0
  0
LINE
  5
34A
330
1E
100
AcDbEntity
  8
1
  6
Continuous
 62
     7
100
AcDbLine
 10
617.0
 20
1106.0
 30
0.0
 11
617.0
 21
1150.0
 31
0.0
  0
LINE
  5
34B
330
1E
100
AcDbEntity
  8
1
  6
Continuous
 62
     7
100
AcDbLine
 10
618.430908
 20
1149.007754
 30
0.0
 11
184.430908
 21
1149.007754
 31
0.0
  0
LINE
  5
380
330
1E
100
AcDbEntity
  8
1
  6
Continuous
 62
     7
100
AcDbLine
 10
593.0
 20
484.4999999999999
 30
0.0
 11
593.0
 21
459.4999999999999
 31
0.0
  0
LINE
  5
381
330
1E
100
AcDbEntity
  8
1
  6
Continuous
 62
     7
100
AcDbLine
 10
593.0
 20
459.4999999999999
 30
0.0
 11
596.0
 21
459.4999999999999
 31
0.0
  0
LINE
  5
382
330
1E
100
AcDbEntity
  8
1
  6
Continuous
 62
     7
100
AcDbLine
 10
596.0
 20
459.4999999999999
 30
0.0
 11
596.0
 21
484.4999999999999
 31
0.0
  0
LINE
  5
383
330
1E
100
AcDbEntity
  8
1
  6
Continuous
 62
     7
100
AcDbLine
 10
596.0
 20
484.4999999999999
 30
0.0
 11
593.0
 21
484.4999999999999
 31
0.0
  0
LINE
  5
384
330
1E
100
AcDbEntity
  8
1
  6
Continuous
 62
     7
100
AcDbLine
 10
590.5
 20
486.6999999999999
 30
0.0
 11
590.5
 21
457.3
 31
0.0
  0
LINE
  5
385
330
1E
100
AcDbEntity
  8
1
  6
Continuous
 62
     7
100
AcDbLine
 10
590.5
 20
457.3
 30
0.0
 11
598.5
 21
457.3
 31
0.0
  0
LINE
  5
386
330
1E
100
AcDbEntity
  8
1
  6
Continuous
 62
     7
100
AcDbLine
 10
598.5
 20
457.3
 30
0.0
 11
598.5
 21
486.6999999999999
 31
0.0
  0
LINE
  5
387
330
1E
100
AcDbEntity
  8
1
  6
Continuous
 62
     7
100
AcDbLine
 10
598.5
 20
486.6999999999999
 30
0.0
 11
590.5
 21
486.6999999999999
 31
0.0
  0
TEXT
  5
388
330
1E
100
AcDbEntity
  8
1
  6
Continuous
 62
     7
100
AcDbText
 10
599.825
 20
470.245603
 30
0.0
 40
3.0
  1
SD
 41
0.616667
  7
KANJI
100
AcDbText
  0
CIRCLE
  5
389
330
1E
100
AcDbEntity
  8
1
  6
Continuous
 62
     7
100
AcDbCircle
 10
275.0
 20
1128.5
 30
0.0
 40
1.25
  0
CIRCLE
  5
38A
330
1E
100
AcDbEntity
  8
1
  6
Continuous
 62
     7
100
AcDbCircle
 10
275.5655029999999
 20
1124.023581
 30
0.0
 40
1.25
  0
CIRCLE
  5
38B
330
1E
100
AcDbEntity
  8
1
  6
Continuous
 62
     7
100
AcDbCircle
 10
277.2264799999999
 20
1119.828434
 30
0.0
 40
1.25
  0
CIRCLE
  5
38C
330
1E
100
AcDbEntity
  8
1
  6
Continuous
 62
     7
100
AcDbCircle
 10
279.878564
 20
1116.178152999999
 30
0.0
 40
1.25
  0
CIRCLE
  5
38D
330
1E
100
AcDbEntity
  8
1
  6
Continuous
 62
     7
100
AcDbCircle
 10
283.355115
 20
1113.302098999999
 30
0.0
 40
1.25
  0
CIRCLE
  5
38E
330
1E
100
AcDbEntity
  8
1
  6
Continuous
 62
     7
100
AcDbCircle
 10
287.4376919999999
 20
1111.380983
 30
0.0
 40
1.25
  0
CIRCLE
  5
38F
330
1E
100
AcDbEntity
  8
1
  6
Continuous
 62
     7
100
AcDbCircle
 10
291.869766
 20
1110.535519
 30
0.0
 40
1.25
  0
CIRCLE
  5
390
330
1E
100
AcDbEntity
  8
1
  6
Continuous
 62
     7
100
AcDbCircle
 10
296.372877
 20
1110.818832
 30
0.0
 40
1.25
  0
CIRCLE
  5
391
330
1E
100
AcDbEntity
  8
1
  6
Continuous
 62
     7
100
AcDbCircle
 10
300.6640549999999
 20
1112.213126
 30
0.0
 40
1.25
  0
CIRCLE
  5
392
330
1E
100
AcDbEntity
  8
1
  6
Continuous
 62
     7
100
AcDbCircle
 10
304.4736229999999
 20
1114.630755
 30
0.0
 40
1.25
  0
CIRCLE
  5
393
330
1E
100
AcDbEntity
  8
1
  6
Continuous
 62
     7
100
AcDbCircle
 10
307.56234
 20
1117.919913
 30
0.0
 40
1.25
  0
CIRCLE
  5
394
330
1E
100
AcDbEntity
  8
1
  6
Continuous
 62
     7
100
AcDbCircle
 10
309.736023
 20
1121.873875999999
 30
0.0
 40
1.25
  0
CIRCLE
  5
395
330
1E
100
AcDbEntity
  8
1
  6
Continuous
 62
     7
100
AcDbCircle
 10
310.858088
 20
1126.244186999999
 30
0.0
 40
1.25
  0
CIRCLE
  5
396
330
1E
100
AcDbEntity
  8
1
  6
Continuous
 62
     7
100
AcDbCircle
 10
279.000056
 20
1128.5
 30
0.0
 40
1.25
  0
CIRCLE
  5
397
330
1E
100
AcDbEntity
  8
1
  6
Continuous
 62
     7
100
AcDbCircle
 10
279.758823
 20
1123.953599
 30
0.0
 40
1.25
  0
CIRCLE
  5
398
330
1E
100
AcDbEntity
  8
1
  6
Continuous
 62
     7
100
AcDbCircle
 10
281.952879
 20
1119.900007
 30
0.0
 40
1.25
  0
CIRCLE
  5
399
330
1E
100
AcDbEntity
  8
1
  6
Continuous
 62
     7
100
AcDbCircle
 10
285.344396
 20
1116.778615
 30
0.0
 40
1.25
  0
CIRCLE
  5
39A
330
1E
100
AcDbEntity
  8
1
  6
Continuous
 62
     7
100
AcDbCircle
 10
289.5657529999999
 20
1114.927765
 30
0.0
 40
1.25
  0
CIRCLE
  5
39B
330
1E
100
AcDbEntity
  8
1
  6
Continuous
 62
     7
100
AcDbCircle
 10
294.159366
 20
1114.548082999999
 30
0.0
 40
1.25
  0
CIRCLE
  5
39C
330
1E
100
AcDbEntity
  8
1
  6
Continuous
 62
     7
100
AcDbCircle
 10
298.6273049999999
 20
1115.680715
 30
0.0
 40
1.25
  0
CIRCLE
  5
39D
330
1E
100
AcDbEntity
  8
1
  6
Continuous
 62
     7
100
AcDbCircle
 10
302.485312
 20
1118.202917
 30
0.0
 40
1.25
  0
CIRCLE
  5
39E
330
1E
100
AcDbEntity
  8
1
  6
Continuous
 62
     7
100
AcDbCircle
 10
305.31515
 20
1121.841287
 30
0.0
 40
1.25
  0
CIRCLE
  5
39F
330
1E
100
AcDbEntity
  8
1
  6
Continuous
 62
     7
100
AcDbCircle
 10
306.810074
 20
1126.201436999999
 30
0.0
 40
1.25
  0
CIRCLE
  5
3A0
330
1E
100
AcDbEntity
  8
1
  6
Continuous
 62
     7
100
AcDbCircle
 10
283.000056
 20
1128.5
 30
0.0
 40
1.25
  0
CIRCLE
  5
3A1
330
1E
100
AcDbEntity
  8
1
  6
Continuous
 62
     7
100
AcDbCircle
 10
284.1453079999999
 20
1123.853125
 30
0.0
 40
1.25
  0
CIRCLE
  5
3A2
330
1E
100
AcDbEntity
  8
1
  6
Continuous
 62
     7
100
AcDbCircle
 10
287.318747
 20
1120.270617999999
 30
0.0
 40
1.25
  0
CIRCLE
  5
3A3
330
1E
100
AcDbEntity
  8
1
  6
Continuous
 62
     7
100
AcDbCircle
 10
291.7934909999999
 20
1118.573057
 30
0.0
 40
1.25
  0
CIRCLE
  5
3A4
330
1E
100
AcDbEntity
  8
1
  6
Continuous
 62
     7
100
AcDbCircle
 10
296.5446
 20
1119.149267
 30
0.0
 40
1.25
  0
CIRCLE
  5
3A5
330
1E
100
AcDbEntity
  8
1
  6
Continuous
 62
     7
100
AcDbCircle
 10
300.4838299999999
 20
1121.867268999999
 30
0.0
 40
1.25
  0
CIRCLE
  5
3A6
330
1E
100
AcDbEntity
  8
1
  6
Continuous
 62
     7
100
AcDbCircle
 10
302.7088959999999
 20
1126.1045
 30
0.0
 40
1.25
  0
CIRCLE
  5
3A7
330
1E
100
AcDbEntity
  8
1
  6
Continuous
 62
     7
100
AcDbCircle
 10
275.5655029999999
 20
1132.976419
 30
0.0
 40
1.25
  0
CIRCLE
  5
3A8
330
1E
100
AcDbEntity
  8
1
  6
Continuous
 62
     7
100
AcDbCircle
 10
277.2264799999999
 20
1137.171565999999
 30
0.0
 40
1.25
  0
CIRCLE
  5
3A9
330
1E
100
AcDbEntity
  8
1
  6
Continuous
 62
     7
100
AcDbCircle
 10
279.878564
 20
1140.821847
 30
0.0
 40
1.25
  0
CIRCLE
  5
3AA
330
1E
100
AcDbEntity
  8
1
  6
Continuous
 62
     7
100
AcDbCircle
 10
283.355115
 20
1143.697901
 30
0.0
 40
1.25
  0
CIRCLE
  5
3AB
330
1E
100
AcDbEntity
  8
1
  6
Continuous
 62
     7
100
AcDbCircle
 10
287.4376919999999
 20
1145.619017
 30
0.0
 40
1.25
  0
CIRCLE
  5
3AC
330
1E
100
AcDbEntity
  8
1
  6
Continuous
 62
     7
100
AcDbCircle
 10
291.869766
 20
1146.464480999999
 30
0.0
 40
1.25
  0
CIRCLE
  5
3AD
330
1E
100
AcDbEntity
  8
1
  6
Continuous
 62
     7
100
AcDbCircle
 10
296.372877
 20
1146.181168
 30
0.0
 40
1.25
  0
CIRCLE
  5
3AE
330
1E
100
AcDbEntity
  8
1
  6
Continuous
 62
     7
100
AcDbCircle
 10
300.6640549999999
 20
1144.786874
 30
0.0
 40
1.25
  0
CIRCLE
  5
3AF
330
1E
100
AcDbEntity
  8
1
  6
Continuous
 62
     7
100
AcDbCircle
 10
304.4736229999999
 20
1142.369245
 30
0.0
 40
1.25
  0
CIRCLE
  5
3B0
330
1E
100
AcDbEntity
  8
1
  6
Continuous
 62
     7
100
AcDbCircle
 10
307.56234
 20
1139.080086999999
 30
0.0
 40
1.25
  0
CIRCLE
  5
3B1
330
1E
100
AcDbEntity
  8
1
  6
Continuous
 62
     7
100
AcDbCircle
 10
309.736023
 20
1135.126124
 30
0.0
 40
1.25
  0
CIRCLE
  5
3B2
330
1E
100
AcDbEntity
  8
1
  6
Continuous
 62
     7
100
AcDbCircle
 10
310.858088
 20
1130.755813
 30
0.0
 40
1.25
  0
CIRCLE
  5
3B3
330
1E
100
AcDbEntity
  8
1
  6
Continuous
 62
     7
100
AcDbCircle
 10
279.758823
 20
1133.046401
 30
0.0
 40
1.25
  0
CIRCLE
  5
3B4
330
1E
100
AcDbEntity
  8
1
  6
Continuous
 62
     7
100
AcDbCircle
 10
281.952879
 20
1137.099993
 30
0.0
 40
1.25
  0
CIRCLE
  5
3B5
330
1E
100
AcDbEntity
  8
1
  6
Continuous
 62
     7
100
AcDbCircle
 10
285.344396
 20
1140.221385
 30
0.0
 40
1.25
  0
CIRCLE
  5
3B6
330
1E
100
AcDbEntity
  8
1
  6
Continuous
 62
     7
100
AcDbCircle
 10
289.5657529999999
 20
1142.072234999999
 30
0.0
 40
1.25
  0
CIRCLE
  5
3B7
330
1E
100
AcDbEntity
  8
1
  6
Continuous
 62
     7
100
AcDbCircle
 10
294.159366
 20
1142.451917
 30
0.0
 40
1.25
  0
CIRCLE
  5
3B8
330
1E
100
AcDbEntity
  8
1
  6
Continuous
 62
     7
100
AcDbCircle
 10
298.6273049999999
 20
1141.319285
 30
0.0
 40
1.25
  0
CIRCLE
  5
3B9
330
1E
100
AcDbEntity
  8
1
  6
Continuous
 62
     7
100
AcDbCircle
 10
302.485312
 20
1138.797082999999
 30
0.0
 40
1.25
  0
CIRCLE
  5
3BA
330
1E
100
AcDbEntity
  8
1
  6
Continuous
 62
     7
100
AcDbCircle
 10
305.31515
 20
1135.158713
 30
0.0
 40
1.25
  0
CIRCLE
  5
3BB
330
1E
100
AcDbEntity
  8
1
  6
Continuous
 62
     7
100
AcDbCircle
 10
306.810074
 20
1130.798563
 30
0.0
 40
1.25
  0
CIRCLE
  5
3BC
330
1E
100
AcDbEntity
  8
1
  6
Continuous
 62
     7
100
AcDbCircle
 10
284.1453079999999
 20
1133.146874999999
 30
0.0
 40
1.25
  0
CIRCLE
  5
3BD
330
1E
100
AcDbEntity
  8
1
  6
Continuous
 62
     7
100
AcDbCircle
 10
287.318747
 20
1136.729382
 30
0.0
 40
1.25
  0
CIRCLE
  5
3BE
330
1E
100
AcDbEntity
  8
1
  6
Continuous
 62
     7
100
AcDbCircle
 10
291.7934909999999
 20
1138.426943
 30
0.0
 40
1.25
  0
CIRCLE
  5
3BF
330
1E
100
AcDbEntity
  8
1
  6
Continuous
 62
     7
100
AcDbCircle
 10
296.5446
 20
1137.850733
 30
0.0
 40
1.25
  0
CIRCLE
  5
3C0
330
1E
100
AcDbEntity
  8
1
  6
Continuous
 62
     7
100
AcDbCircle
 10
300.4838299999999
 20
1135.132731
 30
0.0
 40
1.25
  0
CIRCLE
  5
3C1
330
1E
100
AcDbEntity
  8
1
  6
Continuous
 62
     7
100
AcDbCircle
 10
302.7088959999999
 20
1130.8955
 30
0.0
 40
1.25
  0
CIRCLE
  5
3C2
330
1E
100
AcDbEntity
  8
1
  6
Continuous
 62
     7
100
AcDbCircle
 10
276.5
 20
1145.0
 30
0.0
 40
2.5
  0
LINE
  5
3C3
330
1E
100
AcDbEntity
  8
1
  6
Continuous
 62
     7
100
AcDbLine
 10
274.75
 20
1145.0
 30
0.0
 11
278.25
 21
1145.0
 31
0.0
  0
LINE
  5
3C4
330
1E
100
AcDbEntity
  8
1
  6
Continuous
 62
     7
100
AcDbLine
 10
276.5
 20
1146.749999999999
 30
0.0
 11
276.5
 21
1143.25
 31
0.0
  0
CIRCLE
  5
3C5
330
1E
100
AcDbEntity
  8
1
  6
Continuous
 62
     7
100
AcDbCircle
 10
309.5
 20
1145.0
 30
0.0
 40
2.5
  0
LINE
  5
3C6
330
1E
100
AcDbEntity
  8
1
  6
Continuous
 62
     7
100
AcDbLine
 10
307.75
 20
1145.0
 30
0.0
 11
311.25
 21
1145.0
 31
0.0
  0
LINE
  5
3C7
330
1E
100
AcDbEntity
  8
1
  6
Continuous
 62
     7
100
AcDbLine
 10
309.5
 20
1146.749999999999
 30
0.0
 11
309.5
 21
1143.25
 31
0.0
  0
CIRCLE
  5
3C8
330
1E
100
AcDbEntity
  8
1
  6
Continuous
 62
     7
100
AcDbCircle
 10
309.5
 20
1112.0
 30
0.0
 40
2.5
  0
LINE
  5
3C9
330
1E
100
AcDbEntity
  8
1
  6
Continuous
 62
     7
100
AcDbLine
 10
307.75
 20
1112.0
 30
0.0
 11
311.25
 21
1112.0
 31
0.0
  0
LINE
  5
3CA
330
1E
100
AcDbEntity
  8
1
  6
Continuous
 62
     7
100
AcDbLine
 10
309.5
 20
1113.75
 30
0.0
 11
309.5
 21
1110.25
 31
0.0
  0
CIRCLE
  5
3CB
330
1E
100
AcDbEntity
  8
1
  6
Continuous
 62
     7
100
AcDbCircle
 10
276.5
 20
1112.0
 30
0.0
 40
2.5
  0
LINE
  5
3CC
330
1E
100
AcDbEntity
  8
1
  6
Continuous
 62
     7
100
AcDbLine
 10
274.75
 20
1112.0
 30
0.0
 11
278.25
 21
1112.0
 31
0.0
  0
LINE
  5
3CD
330
1E
100
AcDbEntity
  8
1
  6
Continuous
 62
     7
100
AcDbLine
 10
276.5
 20
1113.75
 30
0.0
 11
276.5
 21
1110.25
 31
0.0
  0
ARC
  5
3CE
330
1E
100
AcDbEntity
  8
1
  6
Continuous
 62
     7
100
AcDbCircle
 10
276.5
 20
950.4374999999999
 30
0.0
 40
2.5625
100
AcDbArc
 50
12.680383
 51
167.3196169999999
  0
ARC
  5
3CF
330
1E
100
AcDbEntity
  8
1
  6
Continuous
 62
     7
100
AcDbCircle
 10
309.5
 20
950.4374999999999
 30
0.0
 40
2.5625
100
AcDbArc
 50
12.680383
 51
167.3196169999999
  0
LINE
  5
3D0
330
1E
100
AcDbEntity
  8
1
  6
Continuous
 62
     7
100
AcDbLine
 10
274.0
 20
951.0
 30
0.0
 11
274.0
 21
950.0
 31
0.0
  0
LINE
  5
3D1
330
1E
100
AcDbEntity
  8
1
  6
Continuous
 62
     7
100
AcDbLine
 10
279.0
 20
951.0
 30
0.0
 11
279.0
 21
950.0
 31
0.0
  0
LINE
  5
3D2
330
1E
100
AcDbEntity
  8
1
  6
Continuous
 62
     7
100
AcDbLine
 10
307.0
 20
951.0
 30
0.0
 11
307.0
 21
950.0
 31
0.0
  0
LINE
  5
3D3
330
1E
100
AcDbEntity
  8
1
  6
Continuous
 62
     7
100
AcDbLine
 10
312.0
 20
951.0
 30
0.0
 11
312.0
 21
950.0
 31
0.0
  0
LINE
  5
3D4
330
1E
100
AcDbEntity
  8
19
  6
Continuous
 62
    52
100
AcDbLine
 10
396.798003
 20
1143.0
 30
0.0
 11
393.751641
 21
1143.0
 31
0.0
  0
LINE
  5
3D5
330
1E
100
AcDbEntity
  8
128
  6
Continuous
 62
     7
100
AcDbLine
 10
403.5
 20
1127.362008
 30
0.0
 11
403.5
 21
1143.0
 31
0.0
  0
LINE
  5
3D6
330
1E
100
AcDbEntity
  8
128
  6
Continuous
 62
     7
100
AcDbLine
 10
388.268189
 20
1143.0
 30
0.0
 11
403.5
 21
1143.0
 31
0.0
  0
LINE
  5
3D7
330
1E
100
AcDbEntity
  8
128
  6
Continuous
 62
     7
100
AcDbLine
 10
388.268189
 20
1127.362008
 30
0.0
 11
388.268189
 21
1143.0
 31
0.0
  0
LINE
  5
3D8
330
1E
100
AcDbEntity
  8
128
  6
Continuous
 62
     7
100
AcDbLine
 10
388.268189
 20
1127.362008
 30
0.0
 11
403.5
 21
1127.362008
 31
0.0
  0
LINE
  5
3D9
330
1E
100
AcDbEntity
  8
128
  6
Continuous
 62
     7
100
AcDbLine
 10
403.5
 20
1127.362008
 30
0.0
 11
403.5
 21
1129.443688
 31
0.0
  0
LINE
  5
3DA
330
1E
100
AcDbEntity
  8
128
  6
Continuous
 62
     7
100
AcDbLine
 10
390.5021879999999
 20
1129.596007
 30
0.0
 11
401.06291
 21
1129.596007
 31
0.0
  0
LINE
  5
3DB
330
1E
100
AcDbEntity
  8
128
  6
Continuous
 62
     7
100
AcDbLine
 10
401.06291
 20
1129.596007
 30
0.0
 11
401.06291
 21
1138.785865999999
 31
0.0
  0
LINE
  5
3DC
330
1E
100
AcDbEntity
  8
128
  6
Continuous
 62
     7
100
AcDbLine
 10
390.5021879999999
 20
1129.596007
 30
0.0
 11
390.5021879999999
 21
1138.938184
 31
0.0
  0
LINE
  5
3DD
330
1E
100
AcDbEntity
  8
128
  6
Continuous
 62
     7
100
AcDbLine
 10
390.5021879999999
 20
1138.938184
 30
0.0
 11
393.9071329999999
 21
1138.938184
 31
0.0
  0
LINE
  5
3DE
330
1E
100
AcDbEntity
  8
128
  6
Continuous
 62
     7
100
AcDbLine
 10
397.8642299999999
 20
1138.938184
 30
0.0
 11
401.06291
 21
1138.938184
 31
0.0
  0
LINE
  5
3DF
330
1E
100
AcDbEntity
  8
128
  6
Continuous
 62
     7
100
AcDbLine
 10
397.8642299999999
 20
1138.938184
 30
0.0
 11
397.8642299999999
 21
1143.0
 31
0.0
  0
LINE
  5
3E0
330
1E
100
AcDbEntity
  8
128
  6
Continuous
 62
     7
100
AcDbLine
 10
393.9071329999999
 20
1138.938184
 30
0.0
 11
393.9071329999999
 21
1143.0
 31
0.0
  0
TEXT
  5
3E1
330
1E
100
AcDbEntity
  8
1
  6
Continuous
 62
     7
100
AcDbText
 10
399.3457669999999
 20
1125.93815
 30
0.0
 40
3.0
  1
LAN
 50
180.0
 41
0.666667
  7
KANJI
100
AcDbText
  0
LINE
  5
3E2
330
1E
100
AcDbEntity
  8
1
  6
Continuous
 62
     7
100
AcDbLine
 10
431.8279819999999
 20
1130.0
 30
0.0
 11
431.8279819999999
 21
1125.638471
 31
0.0
  0
LINE
  5
3E3
330
1E
100
AcDbEntity
  8
1
  6
Continuous
 62
     7
100
AcDbLine
 10
431.8279819999999
 20
1125.638471
 30
0.0
 11
436.9052519999999
 21
1125.638471
 31
0.0
  0
LINE
  5
3E4
330
1E
100
AcDbEntity
  8
1
  6
Continuous
 62
     7
100
AcDbLine
 10
436.9052519999999
 20
1125.638471
 30
0.0
 11
436.9052519999999
 21
1130.0
 31
0.0
  0
TEXT
  5
3E5
330
1E
100
AcDbEntity
  8
1
  6
Continuous
 62
     7
100
AcDbText
 10
437.010564
 20
1124.908342
 30
0.0
 40
3.0
  1
OUT
 50
180.0
 41
0.666667
  7
KANJI
100
AcDbText
  0
TEXT
  5
3E6
330
1E
100
AcDbEntity
  8
1
  6
Continuous
 62
     7
100
AcDbText
 10
439.4551139999999
 20
1122.097976
 30
0.0
 40
3.0
  1
ALARM
 50
180.0
 41
0.666667
  7
KANJI
100
AcDbText
  0
LINE
  5
3E7
330
1E
100
AcDbEntity
  8
1
  6
Continuous
 62
     7
100
AcDbLine
 10
441.8999999999999
 20
1130.0
 30
0.0
 11
441.8999999999999
 21
1125.638471
 31
0.0
  0
LINE
  5
3E8
330
1E
100
AcDbEntity
  8
1
  6
Continuous
 62
     7
100
AcDbLine
 10
441.8999999999999
 20
1125.638471
 30
0.0
 11
476.9
 21
1125.638471
 31
0.0
  0
LINE
  5
3E9
330
1E
100
AcDbEntity
  8
1
  6
Continuous
 62
     7
100
AcDbLine
 10
476.9
 20
1125.638471
 30
0.0
 11
476.9
 21
1130.0
 31
0.0
  0
TEXT
  5
3EA
330
1E
100
AcDbEntity
  8
1
  6
Continuous
 62
     7
100
AcDbText
 10
468.2186409999999
 20
1123.824248
 30
0.0
 40
3.0
  1
SENSOR IN
 50
180.0
 41
0.6976740000000001
  7
KANJI
100
AcDbText
  0
LINE
  5
3EB
330
1E
100
AcDbEntity
  8
1
  6
Continuous
 62
     7
100
AcDbLine
 10
373.7999999999999
 20
477.0
 30
0.0
 11
373.7999999999999
 21
473.0
 31
0.0
  0
LINE
  5
3EC
330
1E
100
AcDbEntity
  8
1
  6
Continuous
 62
     7
100
AcDbLine
 10
373.7999999999999
 20
473.0
 30
0.0
 11
377.26
 21
475.0
 31
0.0
  0
LINE
  5
3ED
330
1E
100
AcDbEntity
  8
1
  6
Continuous
 62
     7
100
AcDbLine
 10
377.26
 20
475.0
 30
0.0
 11
373.7999999999999
 21
477.0
 31
0.0
  0
LINE
  5
3EE
330
1E
100
AcDbEntity
  8
1
  6
Continuous
 62
     7
100
AcDbLine
 10
385.27
 20
477.0
 30
0.0
 11
385.27
 21
473.0
 31
0.0
  0
LINE
  5
3EF
330
1E
100
AcDbEntity
  8
1
  6
Continuous
 62
     7
100
AcDbLine
 10
385.27
 20
473.0
 30
0.0
 11
388.73
 21
475.0
 31
0.0
  0
LINE
  5
3F0
330
1E
100
AcDbEntity
  8
1
  6
Continuous
 62
     7
100
AcDbLine
 10
388.73
 20
475.0
 30
0.0
 11
385.27
 21
477.0
 31
0.0
  0
LINE
  5
3F5
330
1E
100
AcDbEntity
  8
0
100
AcDbLine
 10
279.0
 20
477.0
 30
0.0
 11
279.0
 21
475.0
 31
0.0
  0
LINE
  5
3F6
330
1E
100
AcDbEntity
  8
0
100
AcDbLine
 10
279.0
 20
475.0
 30
0.0
 11
277.0
 21
475.0
 31
0.0
  0
LINE
  5
3F8
330
1E
100
AcDbEntity
  8
0
100
AcDbLine
 10
292.5
 20
477.0
 30
0.0
 11
292.5
 21
475.0
 31
0.0
  0
LINE
  5
3F9
330
1E
100
AcDbEntity
  8
0
100
AcDbLine
 10
292.5
 20
475.0
 30
0.0
 11
294.4999999999999
 21
475.0
 31
0.0
  0
LINE
  5
3FB
330
1E
100
AcDbEntity
  8
0
100
AcDbLine
 10
304.0
 20
475.0
 30
0.0
 11
306.0
 21
475.0
 31
0.0
  0
LINE
  5
3FC
330
1E
100
AcDbEntity
  8
0
100
AcDbLine
 10
306.0
 20
475.0
 30
0.0
 11
306.0
 21
473.0
 31
0.0
  0
LINE
  5
3FE
330
1E
100
AcDbEntity
  8
0
100
AcDbLine
 10
319.5
 20
473.0
 30
0.0
 11
319.5
 21
475.0
 31
0.0
  0
LINE
  5
3FF
330
1E
100
AcDbEntity
  8
0
100
AcDbLine
 10
319.5
 20
475.0
 30
0.0
 11
321.4999999999999
 21
475.0
 31
0.0
  0
LINE
  5
400
330
1E
100
AcDbEntity
  8
0
100
AcDbLine
 10
372.8
 20
477.0
 30
0.0
 11
372.8
 21
473.0
 31
0.0
  0
LINE
  5
401
330
1E
100
AcDbEntity
  8
0
100
AcDbLine
 10
372.8
 20
473.0
 30
0.0
 11
370.8
 21
473.0
 31
0.0
  0
LINE
  5
402
330
1E
100
AcDbEntity
  8
0
100
AcDbLine
 10
370.8
 20
473.0
 30
0.0
 11
370.8
 21
477.0
 31
0.0
  0
LINE
  5
403
330
1E
100
AcDbEntity
  8
0
100
AcDbLine
 10
370.8
 20
477.0
 30
0.0
 11
372.8
 21
477.0
 31
0.0
  0
LINE
  5
404
330
1E
100
AcDbEntity
  8
0
100
AcDbLine
 10
412.0
 20
477.0
 30
0.0
 11
416.0
 21
477.0
 31
0.0
  0
LINE
  5
405
330
1E
100
AcDbEntity
  8
0
100
AcDbLine
 10
416.0
 20
477.0
 30
0.0
 11
416.0
 21
473.0
 31
0.0
  0
LINE
  5
406
330
1E
100
AcDbEntity
  8
0
100
AcDbLine
 10
416.0
 20
473.0
 30
0.0
 11
412.0
 21
473.0
 31
0.0
  0
LINE
  5
407
330
1E
100
AcDbEntity
  8
0
100
AcDbLine
 10
412.0
 20
473.0
 30
0.0
 11
412.0
 21
477.0
 31
0.0
  0
CIRCLE
  5
408
330
1E
100
AcDbEntity
  8
0
100
AcDbCircle
 10
524.5
 20
474.0
 30
0.0
 40
1.0
  0
LINE
  5
410
330
1E
100
AcDbEntity
  8
0
100
AcDbLine
 10
183.0
 20
504.0
 30
0.0
 11
183.0
 21
540.0
 31
0.0
  0
LINE
  5
411
330
1E
100
AcDbEntity
  8
0
100
AcDbLine
 10
617.0
 20
504.0
 30
0.0
 11
617.0
 21
540.0
 31
0.0
  0
LINE
  5
412
330
1E
100
AcDbEntity
  8
0
100
AcDbLine
 10
184.0
 20
540.0
 30
0.0
 11
399.67
 21
540.0
 31
0.0
  0
LINE
  5
413
330
1E
100
AcDbEntity
  8
0
100
AcDbLine
 10
616.0
 20
540.0
 30
0.0
 11
400.33
 21
540.0
 31
0.0
  0
SOLID
  5
414
330
1E
100
AcDbEntity
  8
0
100
AcDbTrace
 10
184.0
 20
540.1666666666666
 30
0.0
 11
184.0
 21
539.8333333333333
 31
0.0
 12
183.0
 22
540.0
 32
0.0
 13
183.0
 23
540.0
 33
0.0
  0
SOLID
  5
415
330
1E
100
AcDbEntity
  8
0
100
AcDbTrace
 10
616.0
 20
540.1666666666666
 30
0.0
 11
616.0
 21
539.8333333333333
 31
0.0
 12
617.0
 22
540.0
 32
0.0
 13
617.0
 23
540.0
 33
0.0
  0
MTEXT
  5
416
330
1E
100
AcDbEntity
  8
0
100
AcDbMText
 10
400.0
 20
543.6135435382498
 30
0.0
 40
5.0
 41
0.0
 71
     5
 72
     1
  1
{\Ftxt.shx,bigfont.shx;434}
 73
     1
 44
1.0
  0
LINE
  5
41C
330
1E
100
AcDbEntity
  8
0
100
AcDbLine
 10
627.0
 20
450.0
 30
0.0
 11
660.0
 21
449.9999999999999
 31
0.0
  0
LINE
  5
41D
330
1E
100
AcDbEntity
  8
0
100
AcDbLine
 10
627.0
 20
494.0
 30
0.0
 11
660.0
 21
493.9999999999999
 31
0.0
  0
LINE
  5
41E
330
1E
100
AcDbEntity
  8
0
100
AcDbLine
 10
660.0
 20
450.9999999999999
 30
0.0
 11
660.0
 21
471.8199999999999
 31
0.0
  0
LINE
  5
41F
330
1E
100
AcDbEntity
  8
0
100
AcDbLine
 10
660.0
 20
492.9999999999999
 30
0.0
 11
660.0
 21
472.1799999999999
 31
0.0
  0
SOLID
  5
420
330
1E
100
AcDbEntity
  8
0
100
AcDbTrace
 10
659.8333333333333
 20
450.9999999999999
 30
0.0
 11
660.1666666666666
 21
450.9999999999999
 31
0.0
 12
660.0
 22
449.9999999999999
 32
0.0
 13
660.0
 23
449.9999999999999
 33
0.0
  0
SOLID
  5
421
330
1E
100
AcDbEntity
  8
0
100
AcDbTrace
 10
659.8333333333333
 20
492.9999999999999
 30
0.0
 11
660.1666666666666
 21
492.9999999999999
 31
0.0
 12
660.0
 22
493.9999999999999
 32
0.0
 13
660.0
 23
493.9999999999999
 33
0.0
  0
MTEXT
  5
422
330
1E
100
AcDbEntity
  8
0
100
AcDbMText
 10
657.1359342705236
 20
472.0
 30
0.0
 40
5.0
 41
0.0
 71
     5
 72
     1
  1
{\Ftxt.shx,bigfont.shx;44}
 11
0.0000000000000001
 21
1.0
 31
0.0
 73
     1
 44
1.0
  0
LINE
  5
423
330
1E
100
AcDbEntity
  8
0
100
AcDbLine
 10
627.0
 20
444.0
 30
0.0
 11
660.0
 21
443.9999999999999
 31
0.0
  0
LINE
  5
424
330
1E
100
AcDbEntity
  8
0
100
AcDbLine
 10
627.0
 20
450.0
 30
0.0
 11
660.0
 21
449.9999999999999
 31
0.0
  0
LINE
  5
425
330
1E
100
AcDbEntity
  8
0
100
AcDbLine
 10
660.0
 20
444.9999999999999
 30
0.0
 11
660.0
 21
446.8199999999999
 31
0.0
  0
LINE
  5
426
330
1E
100
AcDbEntity
  8
0
100
AcDbLine
 10
660.0
 20
448.9999999999999
 30
0.0
 11
660.0
 21
447.1799999999999
 31
0.0
  0
SOLID
  5
427
330
1E
100
AcDbEntity
  8
0
100
AcDbTrace
 10
659.8333333333333
 20
444.9999999999999
 30
0.0
 11
660.1666666666666
 21
444.9999999999999
 31
0.0
 12
660.0
 22
443.9999999999999
 32
0.0
 13
660.0
 23
443.9999999999999
 33
0.0
  0
SOLID
  5
428
330
1E
100
AcDbEntity
  8
0
100
AcDbTrace
 10
659.8333333333333
 20
448.9999999999999
 30
0.0
 11
660.1666666666666
 21
448.9999999999999
 31
0.0
 12
660.0
 22
449.9999999999999
 32
0.0
 13
660.0
 23
449.9999999999999
 33
0.0
  0
MTEXT
  5
429
330
1E
100
AcDbEntity
  8
0
100
AcDbMText
 10
656.5845970319724
 20
447.0
 30
0.0
 40
5.0
 41
0.0
 71
     5
 72
     1
  1
{\Ftxt.shx,bigfont.shx;6}
 11
0.0000000000000001
 21
1.0
 31
0.0
 73
     1
 44
1.0
  0
LINE
  5
42E
330
1E
100
AcDbEntity
  8
0
100
AcDbLine
 10
627.0
 20
650.0
 30
0.0
 11
660.0
 21
650.0
 31
0.0
  0
LINE
  5
42F
330
1E
100
AcDbEntity
  8
0
100
AcDbLine
 10
627.0
 20
950.0
 30
0.0
 11
660.0000000000001
 21
950.0
 31
0.0
  0
LINE
  5
430
330
1E
100
AcDbEntity
  8
0
100
AcDbLine
 10
660.0
 20
651.0
 30
0.0
 11
660.0000000000001
 21
799.82
 31
0.0
  0
LINE
  5
431
330
1E
100
AcDbEntity
  8
0
100
AcDbLine
 10
660.0000000000001
 20
949.0
 30
0.0
 11
660.0000000000001
 21
800.1799999999999
 31
0.0
  0
SOLID
  5
432
330
1E
100
AcDbEntity
  8
0
100
AcDbTrace
 10
659.8333333333333
 20
651.0
 30
0.0
 11
660.1666666666666
 21
651.0
 31
0.0
 12
660.0
 22
650.0
 32
0.0
 13
660.0
 23
650.0
 33
0.0
  0
SOLID
  5
433
330
1E
100
AcDbEntity
  8
0
100
AcDbTrace
 10
659.8333333333335
 20
949.0
 30
0.0
 11
660.1666666666667
 21
949.0
 31
0.0
 12
660.0000000000001
 22
950.0
 32
0.0
 13
660.0000000000001
 23
950.0
 33
0.0
  0
MTEXT
  5
434
330
1E
100
AcDbEntity
  8
0
100
AcDbMText
 10
655.957763637316
 20
800.0000000000001
 30
0.0
 40
5.0
 41
0.0
 71
     5
 72
     1
  1
{\Ftxt.shx,bigfont.shx;300}
 11
0.0000000000000001
 21
1.0
 31
0.0
 73
     1
 44
1.0
  0
ENDSEC
  0
SECTION
  2
OBJECTS
  0
DICTIONARY
  5
C
330
0
100
AcDbDictionary
281
     1
  3
ACAD_GROUP
350
D
  3
ACAD_PLOTSTYLENAME
350
E
  3
ACAD_MLINESTYLE
350
16
  3
ACAD_PLOTSETTINGS
350
18
  3
ACAD_LAYOUT
350
19
  0
DICTIONARY
  5
D
102
{ACAD_REACTORS
330
C
102
}
330
C
100
AcDbDictionary
281
     1
  0
ACDBDICTIONARYWDFLT
  5
E
102
{ACAD_REACTORS
330
C
102
}
330
C
100
AcDbDictionary
281
     1
  3
Normal
350
F
100
AcDbDictionaryWithDefault
340
F
  0
DICTIONARY
  5
16
102
{ACAD_REACTORS
330
C
102
}
330
C
100
AcDbDictionary
281
     1
  3
Standard
350
17
  0
DICTIONARY
  5
18
102
{ACAD_REACTORS
330
C
102
}
330
C
100
AcDbDictionary
281
     1
  0
DICTIONARY
  5
19
102
{ACAD_REACTORS
330
C
102
}
330
C
100
AcDbDictionary
281
     1
  3
ﾚｲｱｳﾄ1
350
1D
  3
Model
350
21
  0
ACDBPLACEHOLDER
  5
F
102
{ACAD_REACTORS
330
E
102
}
330
E
  0
MLINESTYLE
  5
17
102
{ACAD_REACTORS
330
16
102
}
330
16
100
AcDbMlineStyle
  2
STANDARD
 70
     0
  3

 62
   256
 51
90.0
 52
90.0
 71
     2
 49
0.5
 62
   256
  6
BYLAYER
 49
-0.5
 62
   256
  6
BYLAYER
  0
LAYOUT
  5
1D
102
{ACAD_REACTORS
330
19
102
}
330
19
100
AcDbPlotSettings
  1

  2
自動 Canon LASER SHOT LBP-1820 (merit 上)
  4

  6

 40
0.0
 41
0.0
 42
0.0
 43
0.0
 44
0.0
 45
0.0
 46
0.0
 47
0.0
 48
0.0
 49
0.0
140
0.0
141
0.0
142
1.0
143
1.0
 70
   688
 72
     0
 73
     0
 74
     5
  7

 75
    16
147
1.0
148
0.0
149
0.0
100
AcDbLayout
  1
ﾚｲｱｳﾄ1
 70
     1
 71
     1
 10
0.0
 20
0.0
 11
12.0
 21
9.0
 12
0.0
 22
0.0
 32
0.0
 14
0.0
 24
0.0
 34
0.0
 15
210.0
 25
297.0
 35
0.0
146
0.0
 13
0.0
 23
0.0
 33
0.0
 16
1.0
 26
0.0
 36
0.0
 17
0.0
 27
1.0
 37
0.0
 76
     0
330
1A
  0
LAYOUT
  5
21
102
{ACAD_REACTORS
330
19
102
}
330
19
100
AcDbPlotSettings
  1

  2
自動 Canon LASER SHOT LBP-1820 (merit 上)
  4

  6

 40
0.0
 41
0.0
 42
0.0
 43
0.0
 44
0.0
 45
0.0
 46
0.0
 47
0.0
 48
0.0
 49
0.0
140
0.0
141
0.0
142
1.0
143
1.0
 70
  1712
 72
     0
 73
     0
 74
     0
  7

 75
     0
147
1.0
148
0.0
149
0.0
100
AcDbLayout
  1
Model
 70
     1
 71
     0
 10
0.0
 20
0.0
 11
12.0
 21
9.0
 12
0.0
 22
0.0
 32
0.0
 14
0.0
 24
0.0
 34
0.0
 15
0.0
 25
0.0
 35
0.0
146
0.0
 13
0.0
 23
0.0
 33
0.0
 16
1.0
 26
0.0
 36
0.0
 17
0.0
 27
1.0
 37
0.0
 76
     0
330
1E
  0
ENDSEC
  0
EOF
